  0
SECTION
  2
HEADER
  9
$ACADVER
  1
AC1015
  9
$ACADMAINTVER
 70
     6
  9
$DWGCODEPAGE
  3
ANSI_1254
  9
$INSBASE
 10
0.0
 20
0.0
 30
0.0
  9
$EXTMIN
 10
0.0
 20
0.0
 30
0.0
  9
$EXTMAX
 10
279.4
 20
215.9
 30
0.0
  9
$LIMMIN
 10
0.0
 20
0.0
  9
$LIMMAX
 10
279.4
 20
215.9
  9
$ORTHOMODE
 70
     0
  9
$REGENMODE
 70
     1
  9
$FILLMODE
 70
     1
  9
$QTEXTMODE
 70
     0
  9
$MIRRTEXT
 70
     1
  9
$LTSCALE
 40
1.0
  9
$ATTMODE
 70
     1
  9
$TEXTSIZE
 40
3.5
  9
$TRACEWID
 40
1.0
  9
$TEXTSTYLE
  7
Standard
  9
$CLAYER
  8
0
  9
$CELTYPE
  6
ByLayer
  9
$CECOLOR
 62
   256
  9
$CELTSCALE
 40
1.0
  9
$DISPSILH
 70
     0
  9
$DIMSCALE
 40
1.0
  9
$DIMASZ
 40
3.5
  9
$DIMEXO
 40
1.0
  9
$DIMDLI
 40
3.75
  9
$DIMRND
 40
0.0
  9
$DIMDLE
 40
0.0
  9
$DIMEXE
 40
1.0
  9
$DIMTP
 40
0.0
  9
$DIMTM
 40
0.0
  9
$DIMTXT
 40
3.5
  9
$DIMCEN
 40
2.5
  9
$DIMTSZ
 40
0.0
  9
$DIMTOL
 70
     0
  9
$DIMLIM
 70
     0
  9
$DIMTIH
 70
     1
  9
$DIMTOH
 70
     1
  9
$DIMSE1
 70
     0
  9
$DIMSE2
 70
     0
  9
$DIMTAD
 70
     1
  9
$DIMZIN
 70
     0
  9
$DIMBLK
  1

  9
$DIMASO
 70
     1
  9
$DIMSHO
 70
     1
  9
$DIMPOST
  1

  9
$DIMAPOST
  1

  9
$DIMALT
 70
     0
  9
$DIMALTD
 70
     3
  9
$DIMALTF
 40
0.0393700787
  9
$DIMLFAC
 40
1.0
  9
$DIMTOFL
 70
     1
  9
$DIMTVP
 40
0.0
  9
$DIMTIX
 70
     0
  9
$DIMSOXD
 70
     0
  9
$DIMSAH
 70
     0
  9
$DIMBLK1
  1

  9
$DIMBLK2
  1

  9
$DIMSTYLE
  2
ISO-25
  9
$DIMCLRD
 70
     0
  9
$DIMCLRE
 70
     0
  9
$DIMCLRT
 70
     0
  9
$DIMTFAC
 40
1.0
  9
$DIMGAP
 40
1.524
  9
$DIMJUST
 70
     0
  9
$DIMSD1
 70
     0
  9
$DIMSD2
 70
     0
  9
$DIMTOLJ
 70
     0
  9
$DIMTZIN
 70
     0
  9
$DIMALTZ
 70
     0
  9
$DIMALTTZ
 70
     0
  9
$DIMUPT
 70
     0
  9
$DIMDEC
 70
     2
  9
$DIMTDEC
 70
     2
  9
$DIMALTU
 70
     2
  9
$DIMALTTD
 70
     3
  9
$DIMTXSTY
  7
Standard
  9
$DIMAUNIT
 70
     0
  9
$DIMADEC
 70
     2
  9
$DIMALTRND
 40
0.0
  9
$DIMAZIN
 70
     0
  9
$DIMDSEP
 70
    44
  9
$DIMATFIT
 70
     3
  9
$DIMFRAC
 70
     0
  9
$DIMLDRBLK
  1

  9
$DIMLUNIT
 70
     2
  9
$DIMLWD
 70
    -2
  9
$DIMLWE
 70
    -2
  9
$DIMTMOVE
 70
     0
  9
$LUNITS
 70
     2
  9
$LUPREC
 70
     2
  9
$SKETCHINC
 40
1.0
  9
$FILLETRAD
 40
10.0
  9
$AUNITS
 70
     0
  9
$AUPREC
 70
     2
  9
$MENU
  1
.
  9
$ELEVATION
 40
0.0
  9
$PELEVATION
 40
0.0
  9
$THICKNESS
 40
0.0
  9
$LIMCHECK
 70
     0
  9
$CHAMFERA
 40
0.0
  9
$CHAMFERB
 40
0.0
  9
$CHAMFERC
 40
0.0
  9
$CHAMFERD
 40
0.0
  9
$SKPOLY
 70
     0
  9
$TDCREATE
 40
2459741.614509421
  9
$TDUCREATE
 40
2459741.489509421
  9
$TDUPDATE
 40
2459741.614509606
  9
$TDUUPDATE
 40
2459741.489509606
  9
$TDINDWG
 40
0.0000000116
  9
$TDUSRTIMER
 40
0.0000000116
  9
$USRTIMER
 70
     1
  9
$ANGBASE
 50
0.0
  9
$ANGDIR
 70
     0
  9
$PDMODE
 70
     0
  9
$PDSIZE
 40
-1.0
  9
$PLINEWID
 40
0.0
  9
$SPLFRAME
 70
     0
  9
$SPLINETYPE
 70
     6
  9
$SPLINESEGS
 70
     8
  9
$HANDSEED
  5
142
  9
$SURFTAB1
 70
     6
  9
$SURFTAB2
 70
     6
  9
$SURFTYPE
 70
     6
  9
$SURFU
 70
     6
  9
$SURFV
 70
     6
  9
$UCSBASE
  2

  9
$UCSNAME
  2

  9
$UCSORG
 10
0.0
 20
0.0
 30
0.0
  9
$UCSXDIR
 10
1.0
 20
0.0
 30
0.0
  9
$UCSYDIR
 10
0.0
 20
1.0
 30
0.0
  9
$UCSORTHOREF
  2

  9
$UCSORTHOVIEW
 70
     0
  9
$UCSORGTOP
 10
0.0
 20
0.0
 30
0.0
  9
$UCSORGBOTTOM
 10
0.0
 20
0.0
 30
0.0
  9
$UCSORGLEFT
 10
0.0
 20
0.0
 30
0.0
  9
$UCSORGRIGHT
 10
0.0
 20
0.0
 30
0.0
  9
$UCSORGFRONT
 10
0.0
 20
0.0
 30
0.0
  9
$UCSORGBACK
 10
0.0
 20
0.0
 30
0.0
  9
$PUCSBASE
  2

  9
$PUCSNAME
  2

  9
$PUCSORG
 10
0.0
 20
0.0
 30
0.0
  9
$PUCSXDIR
 10
1.0
 20
0.0
 30
0.0
  9
$PUCSYDIR
 10
0.0
 20
1.0
 30
0.0
  9
$PUCSORTHOREF
  2

  9
$PUCSORTHOVIEW
 70
     0
  9
$PUCSORGTOP
 10
0.0
 20
0.0
 30
0.0
  9
$PUCSORGBOTTOM
 10
0.0
 20
0.0
 30
0.0
  9
$PUCSORGLEFT
 10
0.0
 20
0.0
 30
0.0
  9
$PUCSORGRIGHT
 10
0.0
 20
0.0
 30
0.0
  9
$PUCSORGFRONT
 10
0.0
 20
0.0
 30
0.0
  9
$PUCSORGBACK
 10
0.0
 20
0.0
 30
0.0
  9
$USERI1
 70
     0
  9
$USERI2
 70
     0
  9
$USERI3
 70
     0
  9
$USERI4
 70
     0
  9
$USERI5
 70
     0
  9
$USERR1
 40
0.0
  9
$USERR2
 40
0.0
  9
$USERR3
 40
0.0
  9
$USERR4
 40
0.0
  9
$USERR5
 40
0.0
  9
$WORLDVIEW
 70
     1
  9
$SHADEDGE
 70
     3
  9
$SHADEDIF
 70
    70
  9
$TILEMODE
 70
     1
  9
$MAXACTVP
 70
    64
  9
$PINSBASE
 10
0.0
 20
0.0
 30
0.0
  9
$PLIMCHECK
 70
     0
  9
$PEXTMIN
 10
1.0000000000E+20
 20
1.0000000000E+20
 30
1.0000000000E+20
  9
$PEXTMAX
 10
-1.0000000000E+20
 20
-1.0000000000E+20
 30
-1.0000000000E+20
  9
$PLIMMIN
 10
0.0
 20
0.0
  9
$PLIMMAX
 10
420.0
 20
297.0
  9
$UNITMODE
 70
     0
  9
$VISRETAIN
 70
     1
  9
$PLINEGEN
 70
     0
  9
$PSLTSCALE
 70
     1
  9
$TREEDEPTH
 70
  3020
  9
$CMLSTYLE
  2
Standard
  9
$CMLJUST
 70
     0
  9
$CMLSCALE
 40
20.0
  9
$PROXYGRAPHICS
 70
     1
  9
$MEASUREMENT
 70
     1
  9
$CELWEIGHT
370
    -1
  9
$ENDCAPS
280
     0
  9
$JOINSTYLE
280
     0
  9
$LWDISPLAY
290
     1
  9
$INSUNITS
 70
     4
  9
$HYPERLINKBASE
  1

  9
$STYLESHEET
  1

  9
$XEDIT
290
     1
  9
$CEPSNTYPE
380
     0
  9
$PSTYLEMODE
290
     1
  9
$FINGERPRINTGUID
  2
{c937fa53-6e1b-458f-96a3-4a69d04103e1}
  9
$VERSIONGUID
  2
{FAEB1C32-E019-11D5-929B-00C0DF256EC4}
  9
$EXTNAMES
290
     1
  9
$PSVPSCALE
 40
0.0
  9
$OLESTARTUP
290
     0
  0
ENDSEC
  0
SECTION
  2
CLASSES
  0
CLASS
  1
ACDBDICTIONARYWDFLT
  2
AcDbDictionaryWithDefault
  3
ObjectDBX Classes
 90
        0
280
     0
281
     0
  0
CLASS
  1
VISUALSTYLE
  2
AcDbVisualStyle
  3
ObjectDBX Classes
 90
     4095
280
     0
281
     0
  0
CLASS
  1
MATERIAL
  2
AcDbMaterial
  3
ObjectDBX Classes
 90
     1153
280
     0
281
     0
  0
CLASS
  1
SCALE
  2
AcDbScale
  3
ObjectDBX Classes
 90
     1153
280
     0
281
     0
  0
CLASS
  1
TABLESTYLE
  2
AcDbTableStyle
  3
ObjectDBX Classes
 90
     4095
280
     0
281
     0
  0
CLASS
  1
MLEADERSTYLE
  2
AcDbMLeaderStyle
  3
ACDB_MLEADERSTYLE_CLASS
 90
     4095
280
     0
281
     0
  0
CLASS
  1
SUN
  2
AcDbSun
  3
SCENEOE
 90
     1153
280
     0
281
     0
  0
CLASS
  1
ACDBPLACEHOLDER
  2
AcDbPlaceHolder
  3
ObjectDBX Classes
 90
        0
280
     0
281
     0
  0
CLASS
  1
LAYOUT
  2
AcDbLayout
  3
ObjectDBX Classes
 90
        0
280
     0
281
     0
  0
ENDSEC
  0
SECTION
  2
TABLES
  0
TABLE
  2
VPORT
  5
8
330
0
100
AcDbSymbolTable
 70
     1
  0
VPORT
  5
29
330
8
100
AcDbSymbolTableRecord
100
AcDbViewportTableRecord
  2
*Active
 70
     0
 10
0.0
 20
0.0
 11
1.0
 21
1.0
 12
139.7
 22
107.95
 13
0.0
 23
0.0
 14
10.0
 24
10.0
 15
10.0
 25
10.0
 16
0.0
 26
0.0
 36
1.0
 17
0.0
 27
0.0
 37
0.0
 40
215.9
 41
1.2941176471
 42
50.0
 43
0.0
 44
0.0
 50
0.0
 51
0.0
 71
     0
 72
  2000
 73
     1
 74
     3
 75
     0
 76
     0
 77
     0
 78
     0
281
     0
 65
     1
110
0.0
120
0.0
130
0.0
111
1.0
121
0.0
131
0.0
112
0.0
122
1.0
132
0.0
 79
     0
146
0.0
  0
ENDTAB
  0
TABLE
  2
LTYPE
  5
5
330
0
100
AcDbSymbolTable
 70
     6
  0
LTYPE
  5
14
330
5
100
AcDbSymbolTableRecord
100
AcDbLinetypeTableRecord
  2
ByBlock
 70
     0
  3

 72
    65
 73
     0
 40
0.0
  0
LTYPE
  5
15
330
5
100
AcDbSymbolTableRecord
100
AcDbLinetypeTableRecord
  2
ByLayer
 70
     0
  3

 72
    65
 73
     0
 40
0.0
  0
LTYPE
  5
16
330
5
100
AcDbSymbolTableRecord
100
AcDbLinetypeTableRecord
  2
Continuous
 70
     0
  3
Solid line
 72
    65
 73
     0
 40
0.0
  0
LTYPE
  5
6E
330
5
100
AcDbSymbolTableRecord
100
AcDbLinetypeTableRecord
  2
HIDDEN
 70
     0
  3
Hidden __ __ __ __ __ __ __ __ __ __ __ __ __ __
 72
    65
 73
     2
 40
1.905
 49
1.27
 74
     0
 49
-0.635
 74
     0
  0
LTYPE
  5
6F
330
5
100
AcDbSymbolTableRecord
100
AcDbLinetypeTableRecord
  2
PHANTOM
 70
     0
  3
Phantom ______  __  __  ______  __  __  ______
 72
    65
 73
     6
 40
12.7
 49
6.35
 74
     0
 49
-1.27
 74
     0
 49
1.27
 74
     0
 49
-1.27
 74
     0
 49
1.27
 74
     0
 49
-1.27
 74
     0
  0
LTYPE
  5
70
330
5
100
AcDbSymbolTableRecord
100
AcDbLinetypeTableRecord
  2
CENTER
 70
     0
  3
Center ____ _ ____ _ ____ _ ____ _ ____ _ ____
 72
    65
 73
     4
 40
10.16
 49
6.35
 74
     0
 49
-1.27
 74
     0
 49
1.27
 74
     0
 49
-1.27
 74
     0
  0
LTYPE
  5
71
330
5
100
AcDbSymbolTableRecord
100
AcDbLinetypeTableRecord
  2
CENTERX2
 70
     0
  3
Center (2x) ________  __  ________  __  _____
 72
    65
 73
     4
 40
20.32
 49
12.7
 74
     0
 49
-2.54
 74
     0
 49
2.54
 74
     0
 49
-2.54
 74
     0
  0
LTYPE
  5
72
330
5
100
AcDbSymbolTableRecord
100
AcDbLinetypeTableRecord
  2
DOT2
 70
     0
  3
Dot (.5x) ........................................
 72
    65
 73
     2
 40
0.635
 49
0.0
 74
     0
 49
-0.635
 74
     0
  0
ENDTAB
  0
TABLE
  2
LAYER
  5
2
330
0
100
AcDbSymbolTable
 70
    17
  0
LAYER
  5
10
330
2
100
AcDbSymbolTableRecord
100
AcDbLayerTableRecord
  2
0
 70
     0
 62
     7
  6
Continuous
370
    -3
390
F
  0
LAYER
  5
73
330
2
100
AcDbSymbolTableRecord
100
AcDbLayerTableRecord
  2
FORMAT
 70
     0
 62
     7
  6
Continuous
370
    -3
390
F
  0
LAYER
  5
74
330
2
100
AcDbSymbolTableRecord
100
AcDbLayerTableRecord
  2
YARDIMCI_GEOMETRI
 70
     0
 62
    -6
  6
Continuous
290
     0
370
    -3
390
F
  0
LAYER
  5
75
330
2
100
AcDbSymbolTableRecord
100
AcDbLayerTableRecord
  2
SAYFA_CERCEVESI
 70
     0
 62
     7
  6
Continuous
370
    25
390
F
  0
LAYER
  5
76
330
2
100
AcDbSymbolTableRecord
100
AcDbLayerTableRecord
  2
ANTET
 70
     0
 62
     7
  6
Continuous
370
    -3
390
F
  0
LAYER
  5
77
330
2
100
AcDbSymbolTableRecord
100
AcDbLayerTableRecord
  2
OLCU
 70
     0
 62
   150
  6
Continuous
370
    -3
390
F
  0
LAYER
  5
78
330
2
100
AcDbSymbolTableRecord
100
AcDbLayerTableRecord
  2
METIN
 70
     0
 62
    96
  6
Continuous
370
    -3
390
F
  0
LAYER
  5
79
330
2
100
AcDbSymbolTableRecord
100
AcDbLayerTableRecord
  2
BALON
 70
     0
 62
     5
  6
Continuous
370
    -3
390
F
  0
LAYER
  5
7A
330
2
100
AcDbSymbolTableRecord
100
AcDbLayerTableRecord
  2
VURGU
 70
     0
 62
     7
  6
Continuous
370
    -3
390
F
  0
LAYER
  5
7B
330
2
100
AcDbSymbolTableRecord
100
AcDbLayerTableRecord
  2
SILIK
 70
     0
 62
     7
  6
Continuous
370
    -3
390
F
  0
LAYER
  5
7C
330
2
100
AcDbSymbolTableRecord
100
AcDbLayerTableRecord
  2
MODEL
 70
     0
 62
     7
  6
Continuous
370
    -3
390
F
  0
LAYER
  5
7D
330
2
100
AcDbSymbolTableRecord
100
AcDbLayerTableRecord
  2
DETAYLANDıRMA
 70
     0
 62
   190
  6
Continuous
370
    -3
390
F
  0
LAYER
  5
7E
330
2
100
AcDbSymbolTableRecord
100
AcDbLayerTableRecord
  2
TOLERANS
 70
     0
 62
   230
  6
Continuous
370
    -3
390
F
  0
LAYER
  5
7F
330
2
100
AcDbSymbolTableRecord
100
AcDbLayerTableRecord
  2
MERKEZ_CIZGILERI
 70
     0
 62
    30
  6
Continuous
370
    -3
390
F
  0
LAYER
  5
80
330
2
100
AcDbSymbolTableRecord
100
AcDbLayerTableRecord
  2
KESIT-DETAY_CIZGILERI
 70
     0
 62
     7
  6
Continuous
370
    -3
390
F
  0
LAYER
  5
81
330
2
100
AcDbSymbolTableRecord
100
AcDbLayerTableRecord
  2
\U+041E\U+0421\U+0415\U+0412\U+042B\U+0415
 70
     0
 62
     7
  6
Continuous
370
    -3
390
F
  0
LAYER
  5
82
330
2
100
AcDbSymbolTableRecord
100
AcDbLayerTableRecord
  2
\U+0412\U+041E\U+0414\U+042F\U+041D\U+042B\U+0415_\U+0417\U+041D\U+0410\U+041A\U+0418
 70
     0
 62
    11
  6
Continuous
370
    -3
390
F
  0
ENDTAB
  0
TABLE
  2
STYLE
  5
3
330
0
100
AcDbSymbolTable
 70
     1
  0
STYLE
  5
11
330
3
100
AcDbSymbolTableRecord
100
AcDbTextStyleTableRecord
  2
Standard
 70
     0
 40
0.0
 41
1.0
 50
0.0
 71
     0
 42
3.5
  3
txt
  4

  0
ENDTAB
  0
TABLE
  2
VIEW
  5
6
330
0
100
AcDbSymbolTable
 70
     0
  0
ENDTAB
  0
TABLE
  2
UCS
  5
7
330
0
100
AcDbSymbolTable
 70
     0
  0
ENDTAB
  0
TABLE
  2
APPID
  5
9
330
0
100
AcDbSymbolTable
 70
     1
  0
APPID
  5
12
330
9
100
AcDbSymbolTableRecord
100
AcDbRegAppTableRecord
  2
ACAD
 70
     0
  0
ENDTAB
  0
TABLE
  2
DIMSTYLE
  5
A
330
0
100
AcDbSymbolTable
 70
     1
100
AcDbDimStyleTable
  0
DIMSTYLE
105
27
330
A
100
AcDbSymbolTableRecord
100
AcDbDimStyleTableRecord
  2
ISO-25
 70
     0
 41
2.5
 42
0.625
 43
3.75
 44
1.25
 73
     0
 74
     0
 77
     1
 78
     8
140
2.5
141
2.5
143
0.0393700787
147
0.625
171
     3
172
     1
178
     0
271
     2
272
     2
274
     3
278
    44
283
     0
284
     8
340
11
  0
ENDTAB
  0
TABLE
  2
BLOCK_RECORD
  5
1
330
0
100
AcDbSymbolTable
 70
     5
  0
BLOCK_RECORD
  5
1F
330
1
100
AcDbSymbolTableRecord
100
AcDbBlockTableRecord
  2
*Model_Space
340
22
  0
BLOCK_RECORD
  5
1B
330
1
100
AcDbSymbolTableRecord
100
AcDbBlockTableRecord
  2
*Paper_Space
340
1E
  0
BLOCK_RECORD
  5
23
330
1
100
AcDbSymbolTableRecord
100
AcDbBlockTableRecord
  2
*Paper_Space0
340
26
  0
BLOCK_RECORD
  5
C5
330
1
100
AcDbSymbolTableRecord
100
AcDbBlockTableRecord
  2
SW_CENTERMARKSYMBOL_0
340
0
102
{BLKREFS
331
D0
102
}
  0
BLOCK_RECORD
  5
F1
330
1
100
AcDbSymbolTableRecord
100
AcDbBlockTableRecord
  2
SW_CENTERMARKSYMBOL_1
340
0
102
{BLKREFS
331
FC
102
}
  0
BLOCK_RECORD
  5
FD
330
1
100
AcDbSymbolTableRecord
100
AcDbBlockTableRecord
  2
SW_CENTERMARKSYMBOL_2
340
0
102
{BLKREFS
331
108
102
}
  0
BLOCK_RECORD
  5
109
330
1
100
AcDbSymbolTableRecord
100
AcDbBlockTableRecord
  2
SW_CENTERMARKSYMBOL_3
340
0
102
{BLKREFS
331
114
102
}
  0
ENDTAB
  0
ENDSEC
  0
SECTION
  2
BLOCKS
  0
BLOCK
  5
20
330
1F
100
AcDbEntity
  8
0
100
AcDbBlockBegin
  2
*Model_Space
 70
     0
 10
0.0
 20
0.0
 30
0.0
  3
*Model_Space
  1

  0
ENDBLK
  5
21
330
1F
100
AcDbEntity
  8
0
100
AcDbBlockEnd
  0
BLOCK
  5
1C
330
1B
100
AcDbEntity
 67
     1
  8
0
100
AcDbBlockBegin
  2
*Paper_Space
 70
     0
 10
0.0
 20
0.0
 30
0.0
  3
*Paper_Space
  1

  0
ENDBLK
  5
1D
330
1B
100
AcDbEntity
 67
     1
  8
0
100
AcDbBlockEnd
  0
BLOCK
  5
24
330
23
100
AcDbEntity
  8
0
100
AcDbBlockBegin
  2
*Paper_Space0
 70
     0
 10
0.0
 20
0.0
 30
0.0
  3
*Paper_Space0
  1

  0
ENDBLK
  5
25
330
23
100
AcDbEntity
  8
0
100
AcDbBlockEnd
  0
BLOCK
  5
C6
330
C5
100
AcDbEntity
  8
0
100
AcDbBlockBegin
  2
SW_CENTERMARKSYMBOL_0
 70
     0
 10
0.0
 20
0.0
 30
0.0
  3
SW_CENTERMARKSYMBOL_0
  1

  0
LINE
  5
C8
330
C5
100
AcDbEntity
  8
FORMAT
 62
     0
100
AcDbLine
 10
0.0
 20
0.0
 30
0.0
 11
0.0
 21
2.5
 31
0.0
  0
LINE
  5
C9
330
C5
100
AcDbEntity
  8
FORMAT
 62
     0
100
AcDbLine
 10
0.0
 20
0.0
 30
0.0
 11
-2.5
 21
0.0
 31
0.0
  0
LINE
  5
CA
330
C5
100
AcDbEntity
  8
FORMAT
 62
     0
100
AcDbLine
 10
0.0
 20
0.0
 30
0.0
 11
0.0
 21
-2.5
 31
0.0
  0
LINE
  5
CB
330
C5
100
AcDbEntity
  8
FORMAT
 62
     0
100
AcDbLine
 10
0.0
 20
0.0
 30
0.0
 11
2.5
 21
0.0
 31
0.0
  0
LINE
  5
CC
330
C5
100
AcDbEntity
  8
FORMAT
 62
     0
100
AcDbLine
 10
0.0
 20
5.0
 30
0.0
 11
0.0
 21
15.5
 31
0.0
  0
LINE
  5
CD
330
C5
100
AcDbEntity
  8
FORMAT
 62
     0
100
AcDbLine
 10
-5.0
 20
0.0
 30
0.0
 11
-15.5
 21
0.0
 31
0.0
  0
LINE
  5
CE
330
C5
100
AcDbEntity
  8
FORMAT
 62
     0
100
AcDbLine
 10
0.0
 20
-5.0
 30
0.0
 11
0.0
 21
-15.5
 31
0.0
  0
LINE
  5
CF
330
C5
100
AcDbEntity
  8
FORMAT
 62
     0
100
AcDbLine
 10
5.0
 20
0.0
 30
0.0
 11
15.5
 21
0.0
 31
0.0
  0
ENDBLK
  5
C7
330
C5
100
AcDbEntity
  8
0
100
AcDbBlockEnd
  0
BLOCK
  5
F2
330
F1
100
AcDbEntity
  8
0
100
AcDbBlockBegin
  2
SW_CENTERMARKSYMBOL_1
 70
     0
 10
0.0
 20
0.0
 30
0.0
  3
SW_CENTERMARKSYMBOL_1
  1

  0
LINE
  5
F4
330
F1
100
AcDbEntity
  8
FORMAT
 62
     0
100
AcDbLine
 10
0.0
 20
0.0
 30
0.0
 11
0.0
 21
2.5
 31
0.0
  0
LINE
  5
F5
330
F1
100
AcDbEntity
  8
FORMAT
 62
     0
100
AcDbLine
 10
0.0
 20
0.0
 30
0.0
 11
-2.5
 21
0.0
 31
0.0
  0
LINE
  5
F6
330
F1
100
AcDbEntity
  8
FORMAT
 62
     0
100
AcDbLine
 10
0.0
 20
0.0
 30
0.0
 11
0.0
 21
-2.5
 31
0.0
  0
LINE
  5
F7
330
F1
100
AcDbEntity
  8
FORMAT
 62
     0
100
AcDbLine
 10
0.0
 20
0.0
 30
0.0
 11
2.5
 21
0.0
 31
0.0
  0
LINE
  5
F8
330
F1
100
AcDbEntity
  8
FORMAT
 62
     0
100
AcDbLine
 10
0.0
 20
5.0
 30
0.0
 11
0.0
 21
18.5
 31
0.0
  0
LINE
  5
F9
330
F1
100
AcDbEntity
  8
FORMAT
 62
     0
100
AcDbLine
 10
-5.0
 20
0.0
 30
0.0
 11
-18.5
 21
0.0
 31
0.0
  0
LINE
  5
FA
330
F1
100
AcDbEntity
  8
FORMAT
 62
     0
100
AcDbLine
 10
0.0
 20
-5.0
 30
0.0
 11
0.0
 21
-18.5
 31
0.0
  0
LINE
  5
FB
330
F1
100
AcDbEntity
  8
FORMAT
 62
     0
100
AcDbLine
 10
5.0
 20
0.0
 30
0.0
 11
18.5
 21
0.0
 31
0.0
  0
ENDBLK
  5
F3
330
F1
100
AcDbEntity
  8
0
100
AcDbBlockEnd
  0
BLOCK
  5
FE
330
FD
100
AcDbEntity
  8
0
100
AcDbBlockBegin
  2
SW_CENTERMARKSYMBOL_2
 70
     0
 10
0.0
 20
0.0
 30
0.0
  3
SW_CENTERMARKSYMBOL_2
  1

  0
LINE
  5
100
330
FD
100
AcDbEntity
  8
FORMAT
 62
     0
100
AcDbLine
 10
0.0
 20
0.0
 30
0.0
 11
0.0
 21
2.5
 31
0.0
  0
LINE
  5
101
330
FD
100
AcDbEntity
  8
FORMAT
 62
     0
100
AcDbLine
 10
0.0
 20
0.0
 30
0.0
 11
-2.5
 21
0.0
 31
0.0
  0
LINE
  5
102
330
FD
100
AcDbEntity
  8
FORMAT
 62
     0
100
AcDbLine
 10
0.0
 20
0.0
 30
0.0
 11
0.0
 21
-2.5
 31
0.0
  0
LINE
  5
103
330
FD
100
AcDbEntity
  8
FORMAT
 62
     0
100
AcDbLine
 10
0.0
 20
0.0
 30
0.0
 11
2.5
 21
0.0
 31
0.0
  0
LINE
  5
104
330
FD
100
AcDbEntity
  8
FORMAT
 62
     0
100
AcDbLine
 10
0.0
 20
5.0
 30
0.0
 11
0.0
 21
9.5
 31
0.0
  0
LINE
  5
105
330
FD
100
AcDbEntity
  8
FORMAT
 62
     0
100
AcDbLine
 10
-5.0
 20
0.0
 30
0.0
 11
-9.5
 21
0.0
 31
0.0
  0
LINE
  5
106
330
FD
100
AcDbEntity
  8
FORMAT
 62
     0
100
AcDbLine
 10
0.0
 20
-5.0
 30
0.0
 11
0.0
 21
-9.5
 31
0.0
  0
LINE
  5
107
330
FD
100
AcDbEntity
  8
FORMAT
 62
     0
100
AcDbLine
 10
5.0
 20
0.0
 30
0.0
 11
9.5
 21
0.0
 31
0.0
  0
ENDBLK
  5
FF
330
FD
100
AcDbEntity
  8
0
100
AcDbBlockEnd
  0
BLOCK
  5
10A
330
109
100
AcDbEntity
  8
0
100
AcDbBlockBegin
  2
SW_CENTERMARKSYMBOL_3
 70
     0
 10
0.0
 20
0.0
 30
0.0
  3
SW_CENTERMARKSYMBOL_3
  1

  0
LINE
  5
10C
330
109
100
AcDbEntity
  8
FORMAT
 62
     0
100
AcDbLine
 10
0.0
 20
0.0
 30
0.0
 11
0.0
 21
2.5
 31
0.0
  0
LINE
  5
10D
330
109
100
AcDbEntity
  8
FORMAT
 62
     0
100
AcDbLine
 10
0.0
 20
0.0
 30
0.0
 11
-2.5
 21
0.0
 31
0.0
  0
LINE
  5
10E
330
109
100
AcDbEntity
  8
FORMAT
 62
     0
100
AcDbLine
 10
0.0
 20
0.0
 30
0.0
 11
0.0
 21
-2.5
 31
0.0
  0
LINE
  5
10F
330
109
100
AcDbEntity
  8
FORMAT
 62
     0
100
AcDbLine
 10
0.0
 20
0.0
 30
0.0
 11
2.5
 21
0.0
 31
0.0
  0
LINE
  5
110
330
109
100
AcDbEntity
  8
FORMAT
 62
     0
100
AcDbLine
 10
0.0
 20
5.0
 30
0.0
 11
0.0
 21
9.5
 31
0.0
  0
LINE
  5
111
330
109
100
AcDbEntity
  8
FORMAT
 62
     0
100
AcDbLine
 10
-5.0
 20
0.0
 30
0.0
 11
-9.5
 21
0.0
 31
0.0
  0
LINE
  5
112
330
109
100
AcDbEntity
  8
FORMAT
 62
     0
100
AcDbLine
 10
0.0
 20
-5.0
 30
0.0
 11
0.0
 21
-9.5
 31
0.0
  0
LINE
  5
113
330
109
100
AcDbEntity
  8
FORMAT
 62
     0
100
AcDbLine
 10
5.0
 20
0.0
 30
0.0
 11
9.5
 21
0.0
 31
0.0
  0
ENDBLK
  5
10B
330
109
100
AcDbEntity
  8
0
100
AcDbBlockEnd
  0
ENDSEC
  0
SECTION
  2
ENTITIES
  0
LINE
  5
83
330
1F
100
AcDbEntity
  8
0
  6
Continuous
 62
     7
370
    25
100
AcDbLine
 10
171.1807140607
 20
-1.7615714286
 30
0.0
 11
211.1807140607
 21
-1.7615714286
 31
0.0
  0
LINE
  5
84
330
1F
100
AcDbEntity
  8
0
  6
Continuous
 62
     7
370
    25
100
AcDbLine
 10
71.1807140607
 20
-1.7615714286
 30
0.0
 11
111.1807140607
 21
-1.7615714286
 31
0.0
  0
LINE
  5
85
330
1F
100
AcDbEntity
  8
0
  6
Continuous
 62
     7
370
    25
100
AcDbLine
 10
74.1807140607
 20
152.2384285714
 30
0.0
 11
71.1807140607
 21
152.2384285714
 31
0.0
  0
LINE
  5
86
330
1F
100
AcDbEntity
  8
0
  6
Continuous
 62
     7
370
    25
100
AcDbLine
 10
125.2354467313
 20
152.2384285714
 30
0.0
 11
88.1590706958
 21
152.2384285714
 31
0.0
  0
LINE
  5
87
330
1F
100
AcDbEntity
  8
0
  6
Continuous
 62
     7
370
    25
100
AcDbLine
 10
194.2023574257
 20
152.2384285714
 30
0.0
 11
157.1548229813
 21
152.2384285714
 31
0.0
  0
LINE
  5
88
330
1F
100
AcDbEntity
  8
0
  6
Continuous
 62
     7
370
    25
100
AcDbLine
 10
211.1807140607
 20
152.2384285714
 30
0.0
 11
208.1807140607
 21
152.2384285714
 31
0.0
  0
LINE
  5
89
330
1F
100
AcDbEntity
  8
0
  6
Continuous
 62
     7
370
    25
100
AcDbLine
 10
125.1807140607
 20
200.2384285714
 30
0.0
 11
125.1807140607
 21
152.2270832678
 31
0.0
  0
LINE
  5
8A
330
1F
100
AcDbEntity
  8
0
  6
Continuous
 62
     7
370
    25
100
AcDbLine
 10
157.1807140607
 20
152.2330882797
 30
0.0
 11
157.1807140607
 21
200.2384285714
 31
0.0
  0
LINE
  5
8B
330
1F
100
AcDbEntity
  8
0
  6
Continuous
 62
     7
370
    25
100
AcDbLine
 10
74.1807140607
 20
167.2384285714
 30
0.0
 11
74.1807140607
 21
152.2384285714
 31
0.0
  0
LINE
  5
8C
330
1F
100
AcDbEntity
  8
0
  6
Continuous
 62
     7
370
    25
100
AcDbLine
 10
88.1807140607
 20
152.2364667122
 30
0.0
 11
88.1807140607
 21
167.2384285714
 31
0.0
  0
LINE
  5
8D
330
1F
100
AcDbEntity
  8
0
  6
Continuous
 62
     7
370
    25
100
AcDbLine
 10
194.1807140607
 20
167.2384285714
 30
0.0
 11
194.1807140607
 21
152.2364667122
 31
0.0
  0
LINE
  5
8E
330
1F
100
AcDbEntity
  8
0
  6
Continuous
 62
     7
370
    25
100
AcDbLine
 10
208.1807140607
 20
152.2384285714
 30
0.0
 11
208.1807140607
 21
167.2384285714
 31
0.0
  0
LINE
  5
8F
330
1F
100
AcDbEntity
  8
0
  6
Continuous
 62
     7
370
    25
100
AcDbLine
 10
211.1807140607
 20
77.2384285714
 30
0.0
 11
71.1807140607
 21
77.2384285714
 31
0.0
  0
LINE
  5
90
330
1F
100
AcDbEntity
  8
0
  6
Continuous
 62
     7
370
    25
100
AcDbLine
 10
71.1807140607
 20
84.2384285714
 30
0.0
 11
71.1807140607
 21
77.2384285714
 31
0.0
  0
LINE
  5
91
330
1F
100
AcDbEntity
  8
0
  6
Continuous
 62
     7
370
    25
100
AcDbLine
 10
211.1807140607
 20
84.2384285714
 30
0.0
 11
71.1807140607
 21
84.2384285714
 31
0.0
  0
LINE
  5
92
330
1F
100
AcDbEntity
  8
0
  6
Continuous
 62
     7
370
    25
100
AcDbLine
 10
211.1807140607
 20
84.2384285714
 30
0.0
 11
211.1807140607
 21
77.2384285714
 31
0.0
  0
LINE
  5
93
330
1F
100
AcDbEntity
  8
0
  6
Continuous
 62
     7
370
    25
100
AcDbLine
 10
71.1807140607
 20
73.2384285714
 30
0.0
 11
71.1807140607
 21
66.2384285714
 31
0.0
  0
LINE
  5
94
330
1F
100
AcDbEntity
  8
0
  6
Continuous
 62
     7
370
    25
100
AcDbLine
 10
211.1807140607
 20
73.2384285714
 30
0.0
 11
71.1807140607
 21
73.2384285714
 31
0.0
  0
LINE
  5
95
330
1F
100
AcDbEntity
  8
0
  6
Continuous
 62
     7
370
    25
100
AcDbLine
 10
211.1807140607
 20
73.2384285714
 30
0.0
 11
211.1807140607
 21
66.2384285714
 31
0.0
  0
LINE
  5
96
330
1F
100
AcDbEntity
  8
0
  6
Continuous
 62
     7
370
    25
100
AcDbLine
 10
211.1807140607
 20
66.2384285714
 30
0.0
 11
71.1807140607
 21
66.2384285714
 31
0.0
  0
SPLINE
  5
97
330
1F
100
AcDbEntity
  8
0
  6
Continuous
 62
     7
370
    25
100
AcDbSpline
210
0.0
220
0.0
230
1.0
 70
     8
 71
     3
 72
    22
 73
    18
 74
     0
 42
0.00000001
 43
0.00000001
 40
0.0
 40
0.0
 40
0.0
 40
0.0
 40
0.0180508530174977
 40
0.0724516854426413
 40
0.1791545475616271
 40
0.2861569620412497
 40
0.3392355801857053
 40
0.3938575517002348
 40
0.4468533206762983
 40
0.5013970328567633
 40
0.6081631813176329
 40
0.7149220962070226
 40
0.7679180060306062
 40
0.8224453506109286
 40
0.8755240112916145
 40
0.9301502082462924
 40
1.0
 40
1.0
 40
1.0
 40
1.0
 10
88.1590706958263
 20
152.2364653623702
 30
0.0
 10
88.16492531242135
 20
152.2369957908187
 30
0.0
 10
88.18842430382747
 20
152.2391248001825
 30
0.0
 10
87.96260276521237
 20
152.2186520061422
 30
0.0
 10
87.21767595513604
 20
152.1535495289095
 30
0.0
 10
85.8810121934205
 20
152.0590223176837
 30
0.0
 10
84.57095271789505
 20
151.9921719633244
 30
0.0
 10
83.4922493459064
 20
151.9516756513364
 30
0.0
 10
82.33792200073322
 20
151.9253664176334
 30
0.0
 10
80.76915985984539
 20
151.9134693759992
 30
0.0
 10
78.79820460134898
 20
151.945448375832
 30
0.0
 10
77.06322414210597
 20
152.0259632547632
 30
0.0
 10
75.92424102718887
 20
152.0982084811277
 30
0.0
 10
75.21622554188409
 20
152.1503765698305
 30
0.0
 10
74.67595385877779
 20
152.19453632152
 30
0.0
 10
74.26982508289599
 20
152.2302238139103
 30
0.0
 10
74.21274473791551
 20
152.2354793970952
 30
0.0
 10
74.18071406074245
 20
152.2384285714285
 30
0.0
  0
SPLINE
  5
98
330
1F
100
AcDbEntity
  8
0
  6
Continuous
 62
     7
370
    25
100
AcDbSpline
210
0.0
220
0.0
230
1.0
 70
     8
 71
     3
 72
    17
 73
    13
 74
     0
 42
0.00000001
 43
0.00000001
 40
0.0
 40
0.0
 40
0.0
 40
0.0
 40
0.1042673956316187
 40
0.2116003876253541
 40
0.3158561644165156
 40
0.4230587929880082
 40
0.5287348392842367
 40
0.6374159142340076
 40
0.7440167876471121
 40
0.8537937599813912
 40
0.9588649724339287
 40
1.0
 40
1.0
 40
1.0
 40
1.0
 10
141.1807140607425
 20
150.5577488020307
 30
0.0
 10
140.3048148183087
 20
150.566671390002
 30
0.0
 10
138.5272637622283
 20
150.5847789015775
 30
0.0
 10
135.9491389423231
 20
150.7263352496989
 30
0.0
 10
133.4979449812778
 20
150.9363034856834
 30
0.0
 10
131.2735974108489
 20
151.1970333562763
 30
0.0
 10
129.2967979855668
 20
151.4824700947591
 30
0.0
 10
127.6578568987789
 20
151.7575702020929
 30
0.0
 10
126.3750689274994
 20
151.9968688622838
 30
0.0
 10
125.5562780506871
 20
152.1604731827213
 30
0.0
 10
125.1707278021937
 20
152.2404924985095
 30
0.0
 10
125.2212362214032
 20
152.2300240202979
 30
0.0
 10
125.2354467312709
 20
152.2270787209745
 30
0.0
  0
SPLINE
  5
99
330
1F
100
AcDbEntity
  8
0
  6
Continuous
 62
     7
370
    25
100
AcDbSpline
210
0.0
220
0.0
230
1.0
 70
     8
 71
     3
 72
    17
 73
    13
 74
     0
 42
0.00000001
 43
0.00000001
 40
0.0
 40
0.0
 40
0.0
 40
0.0
 40
0.0892691419778153
 40
0.1962075944309013
 40
0.2999008342174433
 40
0.4065030412142966
 40
0.5119930319073785
 40
0.6204714524171376
 40
0.7271004191912932
 40
0.8368954972913625
 40
0.9177479352536224
 40
1.0
 40
1.0
 40
1.0
 40
1.0
 10
157.1548229812628
 20
152.2330705628337
 30
0.0
 10
157.1346466332351
 20
152.2288420983823
 30
0.0
 10
157.0903003717701
 20
152.2195482167591
 30
0.0
 10
156.4939023177871
 20
152.0972812294318
 30
0.0
 10
155.4879717562422
 20
151.9016236327888
 30
0.0
 10
154.0876593805256
 20
151.650286273649
 30
0.0
 10
152.3130860649424
 20
151.3679724390671
 30
0.0
 10
150.2249701123783
 20
151.0880276948199
 30
0.0
 10
147.8487818833484
 20
150.838584564947
 30
0.0
 10
145.4925006068357
 20
150.6699123302263
 30
0.0
 10
143.2410896847286
 20
150.5742270237288
 30
0.0
 10
141.871423712348
 20
150.5632728757169
 30
0.0
 10
141.1807140607425
 20
150.5577488020307
 30
0.0
  0
SPLINE
  5
9A
330
1F
100
AcDbEntity
  8
0
  6
Continuous
 62
     7
370
    25
100
AcDbSpline
210
0.0
220
0.0
230
1.0
 70
     8
 71
     3
 72
    22
 73
    18
 74
     0
 42
0.00000001
 43
0.00000001
 40
0.0
 40
0.0
 40
0.0
 40
0.0
 40
0.0528572415551133
 40
0.1072511965625871
 40
0.2141098099820323
 40
0.3212439176581194
 40
0.3743220220072617
 40
0.4289475257989586
 40
0.4818762536892921
 40
0.5363491712839324
 40
0.6430497990044695
 40
0.7499120549164734
 40
0.8029593248605416
 40
0.8575441471549416
 40
0.9105922254852812
 40
0.9651893422427291
 40
1.0
 40
1.0
 40
1.0
 40
1.0
 10
208.1807140607425
 20
152.2384285714285
 30
0.0
 10
208.1619988066643
 20
152.2367135314798
 30
0.0
 10
208.1240241917429
 20
152.2332335903924
 30
0.0
 10
207.719972437631
 20
152.1972716550885
 30
0.0
 10
206.7604789741938
 20
152.117645044507
 30
0.0
 10
205.2728847370212
 20
152.0234812720135
 30
0.0
 10
203.8730135556821
 20
151.9642431463857
 30
0.0
 10
202.7483073440294
 20
151.9326871752558
 30
0.0
 10
201.5693224003178
 20
151.9175491683832
 30
0.0
 10
199.9973663536849
 20
151.9215691886499
 30
0.0
 10
198.0763716456916
 20
151.9722632180649
 30
0.0
 10
196.4574711234645
 20
152.0616034073551
 30
0.0
 10
195.4432342169845
 20
152.1329222538265
 30
0.0
 10
194.8420556079
 20
152.1805806934953
 30
0.0
 10
194.4242171170521
 20
152.2164406386862
 30
0.0
 10
194.2008161357749
 20
152.2365946924791
 30
0.0
 10
194.2019254984988
 20
152.2365016055113
 30
0.0
 10
194.2023574256586
 20
152.2364653623702
 30
0.0
  0
LINE
  5
9B
330
1F
100
AcDbEntity
  8
0
  6
Continuous
 62
     7
370
    25
100
AcDbLine
 10
111.1807140607
 20
65.2384285714
 30
0.0
 11
171.1807140607
 21
65.2384285714
 31
0.0
  0
LINE
  5
9C
330
1F
100
AcDbEntity
  8
0
  6
Continuous
 62
     7
370
    25
100
AcDbLine
 10
111.1807140607
 20
-1.7615714286
 30
0.0
 11
111.1807140607
 21
65.2384285714
 31
0.0
  0
LINE
  5
9D
330
1F
100
AcDbEntity
  8
0
  6
Continuous
 62
     7
370
    25
100
AcDbLine
 10
171.1807140607
 20
65.2384285714
 30
0.0
 11
171.1807140607
 21
-1.7615714286
 31
0.0
  0
LINE
  5
9E
330
1F
100
AcDbEntity
  8
0
  6
Continuous
 62
     7
370
    25
100
AcDbLine
 10
71.1807140607
 20
66.2384285714
 30
0.0
 11
71.1807140607
 21
-1.7615714286
 31
0.0
  0
LINE
  5
9F
330
1F
100
AcDbEntity
  8
0
  6
Continuous
 62
     7
370
    25
100
AcDbLine
 10
71.1807140607
 20
152.2384285714
 30
0.0
 11
71.1807140607
 21
84.2384285714
 31
0.0
  0
LINE
  5
A0
330
1F
100
AcDbEntity
  8
0
  6
Continuous
 62
     7
370
    25
100
AcDbLine
 10
211.1807140607
 20
66.2384285714
 30
0.0
 11
211.1807140607
 21
-1.7615714286
 31
0.0
  0
LINE
  5
A1
330
1F
100
AcDbEntity
  8
0
  6
Continuous
 62
     7
370
    25
100
AcDbLine
 10
211.1807140607
 20
152.2384285714
 30
0.0
 11
211.1807140607
 21
84.2384285714
 31
0.0
  0
LINE
  5
A2
330
1F
100
AcDbEntity
  8
0
  6
Continuous
 62
     7
370
    25
100
AcDbLine
 10
71.1807140607
 20
77.2384285714
 30
0.0
 11
71.1807140607
 21
73.2384285714
 31
0.0
  0
LINE
  5
A3
330
1F
100
AcDbEntity
  8
0
  6
Continuous
 62
     7
370
    25
100
AcDbLine
 10
211.1807140607
 20
77.2384285714
 30
0.0
 11
211.1807140607
 21
73.2384285714
 31
0.0
  0
LINE
  5
A4
330
1F
100
AcDbEntity
  8
0
  6
Continuous
 62
     7
370
    25
100
AcDbLine
 10
141.1807140607
 20
200.2384285714
 30
0.0
 11
157.1807140607
 21
200.2384285714
 31
0.0
  0
LINE
  5
A5
330
1F
100
AcDbEntity
  8
0
  6
Continuous
 62
     7
370
    25
100
AcDbLine
 10
125.1807140607
 20
200.2384285714
 30
0.0
 11
141.1807140607
 21
200.2384285714
 31
0.0
  0
LINE
  5
A6
330
1F
100
AcDbEntity
  8
0
  6
Continuous
 62
     7
370
    25
100
AcDbLine
 10
74.1807140607
 20
167.2384285714
 30
0.0
 11
88.1807140607
 21
167.2384285714
 31
0.0
  0
LINE
  5
A7
330
1F
100
AcDbEntity
  8
0
  6
Continuous
 62
     7
370
    25
100
AcDbLine
 10
208.1807140607
 20
167.2384285714
 30
0.0
 11
194.1807140607
 21
167.2384285714
 31
0.0
  0
LINE
  5
A8
330
1F
100
AcDbEntity
  8
0
  6
Continuous
 62
     7
370
    25
100
AcDbLine
 10
351.6006312596
 20
167.2384285714
 30
0.0
 11
351.6006312596
 21
151.9216514069
 31
0.0
  0
LINE
  5
A9
330
1F
100
AcDbEntity
  8
0
  6
Continuous
 62
     7
370
    25
100
AcDbLine
 10
365.6006312596
 20
151.9198114877
 30
0.0
 11
365.6006312596
 21
167.2384285714
 31
0.0
  0
LINE
  5
AA
330
1F
100
AcDbEntity
  8
0
  6
Continuous
 62
     7
370
    25
100
AcDbLine
 10
342.6006312596
 20
200.2384285714
 30
0.0
 11
342.6006312596
 21
150.5669700365
 31
0.0
  0
LINE
  5
AB
330
1F
100
AcDbEntity
  8
0
  6
Continuous
 62
     7
370
    25
100
AcDbLine
 10
374.6006312596
 20
150.557748802
 30
0.0
 11
374.6006312596
 21
200.2384285714
 31
0.0
  0
LINE
  5
AC
330
1F
100
AcDbEntity
  8
0
  6
Continuous
 62
     7
370
    25
100
AcDbLine
 10
435.0728484368
 20
84.2384285714
 30
0.0
 11
450.0728484368
 21
84.2384285714
 31
0.0
  0
LINE
  5
AD
330
1F
100
AcDbEntity
  8
0
  6
Continuous
 62
     7
370
    25
100
AcDbLine
 10
450.0728484368
 20
84.2384285714
 30
0.0
 11
450.0728484368
 21
77.2384285714
 31
0.0
  0
LINE
  5
AE
330
1F
100
AcDbEntity
  8
0
  6
Continuous
 62
     7
370
    25
100
AcDbLine
 10
450.0728484368
 20
77.2384285714
 30
0.0
 11
428.5720539977
 21
77.2384285714
 31
0.0
  0
ARC
  5
AF
330
1F
100
AcDbEntity
  8
0
  6
Continuous
 62
     7
370
    25
100
AcDbCircle
 10
358.6006312596
 20
75.2384285714
 30
0.0
 40
69.99999999999999
100
AcDbArc
 50
1.6372450778
 51
358.3627549222
  0
LINE
  5
B0
330
1F
100
AcDbEntity
  8
0
  6
Continuous
 62
     7
370
    25
100
AcDbLine
 10
428.5720539977
 20
73.2384285714
 30
0.0
 11
450.0728484368
 21
73.2384285714
 31
0.0
  0
LINE
  5
B1
330
1F
100
AcDbEntity
  8
0
  6
Continuous
 62
     7
370
    25
100
AcDbLine
 10
450.0728484368
 20
73.2384285714
 30
0.0
 11
450.0728484368
 21
66.2384285714
 31
0.0
  0
LINE
  5
B2
330
1F
100
AcDbEntity
  8
0
  6
Continuous
 62
     7
370
    25
100
AcDbLine
 10
450.0728484368
 20
66.2384285714
 30
0.0
 11
435.0728484368
 21
66.2384285714
 31
0.0
  0
ARC
  5
B3
330
1F
100
AcDbEntity
  8
0
  6
Continuous
 62
     7
370
    25
100
AcDbCircle
 10
358.6006312596
 20
75.2384285714
 30
0.0
 40
76.99999999999997
100
AcDbArc
 50
6.7122522934
 51
353.2877477066
  0
LINE
  5
B4
330
1F
100
AcDbEntity
  8
0
  6
Continuous
 62
     7
370
    25
100
AcDbLine
 10
358.6006312596
 20
167.2384285714
 30
0.0
 11
365.6006312596
 21
167.2384285714
 31
0.0
  0
LINE
  5
B5
330
1F
100
AcDbEntity
  8
0
  6
Continuous
 62
     7
370
    25
100
AcDbLine
 10
351.6006312596
 20
167.2384285714
 30
0.0
 11
358.6006312596
 21
167.2384285714
 31
0.0
  0
LINE
  5
B6
330
1F
100
AcDbEntity
  8
0
  6
Continuous
 62
     7
370
    25
100
AcDbLine
 10
342.6006312596
 20
200.2384285714
 30
0.0
 11
374.6006312596
 21
200.2384285714
 31
0.0
  0
LINE
  5
B7
330
1F
100
AcDbEntity
  8
0
  6
Continuous
 62
     7
370
    25
100
AcDbLine
 10
71.1807140607
 20
251.3017621162
 30
0.0
 11
211.1807140607
 21
251.3017621162
 31
0.0
  0
LINE
  5
B8
330
1F
100
AcDbEntity
  8
0
  6
Continuous
 62
     7
370
    25
100
AcDbLine
 10
211.1807140607
 20
404.7739792935
 30
0.0
 11
71.1807140607
 21
404.7739792935
 31
0.0
  0
LINE
  5
B9
330
1F
100
AcDbEntity
  8
0
  6
Continuous
 62
     7
370
    25
100
AcDbLine
 10
211.1807140607
 20
404.7739792935
 30
0.0
 11
211.1807140607
 21
251.3017621162
 31
0.0
  0
LINE
  5
BA
330
1F
100
AcDbEntity
  8
0
  6
Continuous
 62
     7
370
    25
100
AcDbLine
 10
71.1807140607
 20
404.7739792935
 30
0.0
 11
71.1807140607
 21
251.3017621162
 31
0.0
  0
LINE
  5
BB
330
1F
100
AcDbEntity
  8
0
  6
Continuous
 62
     7
370
    25
100
AcDbLine
 10
111.1807140607
 20
404.6496501027
 30
0.0
 11
171.1807140607
 21
404.6496501027
 31
0.0
  0
LINE
  5
BC
330
1F
100
AcDbEntity
  8
0
  6
Continuous
 62
     7
370
    25
100
AcDbLine
 10
111.1807140607
 20
251.9538741297
 30
0.0
 11
111.1807140607
 21
404.6496501027
 31
0.0
  0
LINE
  5
BD
330
1F
100
AcDbEntity
  8
0
  6
Continuous
 62
     7
370
    25
100
AcDbLine
 10
171.1807140607
 20
251.9538741297
 30
0.0
 11
111.1807140607
 21
251.9538741297
 31
0.0
  0
LINE
  5
BE
330
1F
100
AcDbEntity
  8
0
  6
Continuous
 62
     7
370
    25
100
AcDbLine
 10
171.1807140607
 20
404.6496501027
 30
0.0
 11
171.1807140607
 21
251.9538741297
 31
0.0
  0
SPLINE
  5
BF
330
1F
100
AcDbEntity
  8
0
  6
Continuous
 62
     7
370
    25
100
AcDbSpline
210
0.0
220
0.0
230
1.0
 70
    11
 71
     3
 72
   103
 73
    99
 74
     0
 42
0.00000001
 43
0.00000001
 40
0.0
 40
0.0
 40
0.0
 40
0.0
 40
0.03125
 40
0.03125
 40
0.046875
 40
0.046875
 40
0.0625
 40
0.0625
 40
0.09375
 40
0.09375
 40
0.1093749999999999
 40
0.1093749999999999
 40
0.1249999999999999
 40
0.1249999999999999
 40
0.1562499999999999
 40
0.1562499999999999
 40
0.1718749999999999
 40
0.1718749999999999
 40
0.1874999999999999
 40
0.1874999999999999
 40
0.2031249999999999
 40
0.2031249999999999
 40
0.2187499999999999
 40
0.2187499999999999
 40
0.2499999999999998
 40
0.2499999999999998
 40
0.2656249999999998
 40
0.2656249999999998
 40
0.2812499999999998
 40
0.2812499999999998
 40
0.3124999999999998
 40
0.3124999999999998
 40
0.3281249999999998
 40
0.3281249999999998
 40
0.3437499999999999
 40
0.3437499999999999
 40
0.3593749999999999
 40
0.3593749999999999
 40
0.375
 40
0.375
 40
0.40625
 40
0.40625
 40
0.4218750000000001
 40
0.4218750000000001
 40
0.4375000000000001
 40
0.4375000000000001
 40
0.4687500000000002
 40
0.4687500000000002
 40
0.4843750000000002
 40
0.4843750000000002
 40
0.5000000000000002
 40
0.5000000000000002
 40
0.5312500000000003
 40
0.5312500000000003
 40
0.5468750000000003
 40
0.5468750000000003
 40
0.5625000000000003
 40
0.5625000000000003
 40
0.5781250000000003
 40
0.5781250000000003
 40
0.5937500000000003
 40
0.5937500000000003
 40
0.6250000000000002
 40
0.6250000000000002
 40
0.6406250000000002
 40
0.6406250000000002
 40
0.6562500000000002
 40
0.6562500000000002
 40
0.6875000000000002
 40
0.6875000000000002
 40
0.7031250000000002
 40
0.7031250000000002
 40
0.7187500000000002
 40
0.7343750000000002
 40
0.7343750000000002
 40
0.7500000000000002
 40
0.7500000000000002
 40
0.7812500000000002
 40
0.7812500000000002
 40
0.7968750000000002
 40
0.7968750000000002
 40
0.8125000000000002
 40
0.8125000000000002
 40
0.8437500000000002
 40
0.8437500000000002
 40
0.8593750000000002
 40
0.8593750000000002
 40
0.8750000000000001
 40
0.8750000000000001
 40
0.9062500000000001
 40
0.9062500000000001
 40
0.9375000000000001
 40
0.9375000000000001
 40
0.9531250000000001
 40
0.9531250000000001
 40
0.9687500000000001
 40
0.9687500000000001
 40
1.0
 40
1.0
 40
1.0
 40
1.0
 10
141.1807140607425
 20
315.3017621162343
 30
0.0
 10
142.0415621494927
 20
315.3017621162343
 30
0.0
 10
142.8876425508475
 20
315.3864212873132
 30
0.0
 10
144.1356075354574
 20
315.6349348515847
 30
0.0
 10
144.548044225935
 20
315.7381790810242
 30
0.0
 10
145.3656753572986
 20
315.9863802678967
 30
0.0
 10
145.7715598163147
 20
316.131901427141
 30
0.0
 10
146.9515669332987
 20
316.6217470093568
 30
0.0
 10
147.6974865264113
 20
317.021144451311
 30
0.0
 10
148.756245239341
 20
317.7286125414882
 30
0.0
 10
149.1006333506745
 20
317.98394726742
 30
0.0
 10
149.7608017722615
 20
318.5260514169505
 30
0.0
 10
150.0751215044786
 20
318.8113239132839
 30
0.0
 10
150.9722657506192
 20
319.7086765387884
 30
0.0
 10
151.5097260431675
 20
320.3618815332894
 30
0.0
 10
152.2225573110236
 20
321.4271533501046
 30
0.0
 10
152.4432553093813
 20
321.7951856730704
 30
0.0
 10
152.8439192410695
 20
322.5441569448442
 30
0.0
 10
153.0251018942663
 20
322.9268600848448
 30
0.0
 10
153.3495985202455
 20
323.7085773813004
 30
0.0
 10
153.4929130299023
 20
324.1075912135319
 30
0.0
 10
153.7409844465972
 20
324.9222768223654
 30
0.0
 10
153.8461605073789
 20
325.3404043391099
 30
0.0
 10
154.0971881444376
 20
326.5995895185721
 30
0.0
 10
154.18021550483
 20
327.4443026801416
 30
0.0
 10
154.1809600131829
 20
328.7191034584235
 30
0.0
 10
154.1604277595507
 20
329.1453344780447
 30
0.0
 10
154.0764090505933
 20
330.0004771486559
 30
0.0
 10
154.0132523288805
 20
330.4247094180307
 30
0.0
 10
153.7639052442403
 20
331.6762360363093
 30
0.0
 10
153.5179406558037
 20
332.4875125761046
 30
0.0
 10
153.0283767344779
 20
333.6697045443835
 30
0.0
 10
152.8440124663658
 20
334.0592688890645
 30
0.0
 10
152.442130202559
 20
334.8103656852524
 30
0.0
 10
152.2239930005362
 20
335.1737949518783
 30
0.0
 10
151.7540113467136
 20
335.877000035847
 30
0.0
 10
151.5021659620281
 20
336.2167750179237
 30
0.0
 10
150.9644413138362
 20
336.8725543562512
 30
0.0
 10
150.6774927092116
 20
337.189617944088
 30
0.0
 10
149.7707666880214
 20
338.096767962047
 30
0.0
 10
149.1164148872148
 20
338.633282259493
 30
0.0
 10
148.0619994861046
 20
339.3392810817518
 30
0.0
 10
147.6982898587858
 20
339.5580280317883
 30
0.0
 10
146.9456145337134
 20
339.9614464679498
 30
0.0
 10
146.5567517386748
 20
340.1457135088821
 30
0.0
 10
145.3780305337819
 20
340.6349043455672
 30
0.0
 10
144.5677724817666
 20
340.8816196093063
 30
0.0
 10
143.3154411439608
 20
341.1323577806426
 30
0.0
 10
142.8895263972506
 20
341.1960932352305
 30
0.0
 10
142.0362350121217
 20
341.2806641695464
 30
0.0
 10
141.6105902383147
 20
341.3015910547323
 30
0.0
 10
140.3365755742998
 20
341.3021011136883
 30
0.0
 10
139.4910982137804
 20
341.2200137161983
 30
0.0
 10
138.2288463074962
 20
340.9694565905621
 30
0.0
 10
137.8121381506143
 20
340.8649464242783
 30
0.0
 10
136.9981488824478
 20
340.6178918715388
 30
0.0
 10
136.5990592656
 20
340.4750036066176
 30
0.0
 10
135.816444786786
 20
340.1509808331594
 30
0.0
 10
135.4329198016877
 20
339.9698468463252
 30
0.0
 10
134.681638951506
 20
339.5686766378549
 30
0.0
 10
134.3122742005613
 20
339.3473918535258
 30
0.0
 10
133.2498818698576
 20
338.6375015859135
 30
0.0
 10
132.5964762024924
 20
338.1011945369949
 30
0.0
 10
131.6968940932923
 20
337.2032598929576
 30
0.0
 10
131.4101239966756
 20
336.8877327789131
 30
0.0
 10
130.8663444121257
 20
336.2262243170474
 30
0.0
 10
130.6129172317681
 20
335.884706910492
 30
0.0
 10
129.9061707012874
 20
334.82879806839
 30
0.0
 10
129.5058686089511
 20
334.0833503511284
 30
0.0
 10
129.0140088557637
 20
332.9010532752513
 30
0.0
 10
128.8682443148845
 20
332.4951777201393
 30
0.0
 10
128.6200206914801
 20
331.6797222777649
 30
0.0
 10
128.4130815929902
 20
330.8563041460442
 30
0.0
 10
128.2873632467153
 20
330.0171860076564
 30
0.0
 10
128.2027654869486
 20
329.1701083356647
 30
0.0
 10
128.1810382750006
 20
328.7407996769809
 30
0.0
 10
128.1800765052733
 20
327.4528091093346
 30
0.0
 10
128.2636853593193
 20
326.607332617162
 30
0.0
 10
128.511238882682
 20
325.3581963937324
 30
0.0
 10
128.6142629406008
 20
324.945020104124
 30
0.0
 10
128.8624348712439
 20
324.1252314387048
 30
0.0
 10
129.0073154617321
 20
323.7203655603367
 30
0.0
 10
129.495450827337
 20
322.5417330731536
 30
0.0
 10
129.8940779947318
 20
321.7952117347942
 30
0.0
 10
130.6020295883149
 20
320.7339174613132
 30
0.0
 10
130.8580214915559
 20
320.388256790831
 30
0.0
 10
131.3983617839486
 20
319.7292985061727
 30
0.0
 10
131.6829340479312
 20
319.4152082081397
 30
0.0
 10
132.5789352344125
 20
318.5178946214335
 30
0.0
 10
133.2322197366773
 20
317.9791765815992
 30
0.0
 10
134.65599511734
 20
317.0251324402558
 30
0.0
 10
135.4046047894813
 20
316.6247215934947
 30
0.0
 10
136.5770295630775
 20
316.136842574093
 30
0.0
 10
136.9763642803786
 20
315.9930047311291
 30
0.0
 10
137.7925498258081
 20
315.7438001574553
 30
0.0
 10
138.2110143887421
 20
315.6382704740482
 30
0.0
 10
139.4699064137175
 20
315.3864346310614
 30
0.0
 10
140.3198659719923
 20
315.3017621162343
 30
0.0
 10
141.1807140607425
 20
315.3017621162343
 30
0.0
  0
LINE
  5
C0
330
1F
100
AcDbEntity
  8
0
  6
Continuous
 62
     7
370
    25
100
AcDbLine
 10
171.1807140607
 20
397.583794419
 30
0.0
 11
111.1807140607
 21
397.583794419
 31
0.0
  0
LINE
  5
C1
330
1F
100
AcDbEntity
  8
0
  6
Continuous
 62
     7
370
    25
100
AcDbLine
 10
111.1807140607
 20
259.0197298135
 30
0.0
 11
171.1807140607
 21
259.0197298135
 31
0.0
  0
LINE
  5
C2
330
1F
100
AcDbEntity
  8
0
  6
Continuous
 62
     7
370
    25
100
AcDbLine
 10
211.1807140607
 20
419.7739792935
 30
0.0
 11
71.1807140607
 21
419.7739792935
 31
0.0
  0
LINE
  5
C3
330
1F
100
AcDbEntity
  8
0
  6
Continuous
 62
     7
370
    25
100
AcDbLine
 10
71.1807140607
 20
419.7739792935
 30
0.0
 11
71.1807140607
 21
404.7739792935
 31
0.0
  0
LINE
  5
C4
330
1F
100
AcDbEntity
  8
0
  6
Continuous
 62
     7
370
    25
100
AcDbLine
 10
211.1807140607
 20
419.7739792935
 30
0.0
 11
211.1807140607
 21
404.7739792935
 31
0.0
  0
INSERT
  5
D0
330
1F
100
AcDbEntity
  8
FORMAT
100
AcDbBlockReference
  2
SW_CENTERMARKSYMBOL_0
 10
141.1807140607
 20
328.3017621162
 30
0.0
  0
LINE
  5
D1
330
1F
100
AcDbEntity
  8
0
  6
Continuous
 62
     7
370
    25
100
AcDbLine
 10
-72.1310325828
 20
167.2384285714
 30
0.0
 11
-72.1310325828
 21
151.9216514069
 31
0.0
  0
LINE
  5
D2
330
1F
100
AcDbEntity
  8
0
  6
Continuous
 62
     7
370
    25
100
AcDbLine
 10
-58.1310325828
 20
151.9198114877
 30
0.0
 11
-58.1310325828
 21
167.2384285714
 31
0.0
  0
LINE
  5
D3
330
1F
100
AcDbEntity
  8
0
  6
Continuous
 62
     7
370
    25
100
AcDbLine
 10
-81.1310325828
 20
200.2384285714
 30
0.0
 11
-81.1310325828
 21
150.557748802
 31
0.0
  0
LINE
  5
D4
330
1F
100
AcDbEntity
  8
0
  6
Continuous
 62
     7
370
    25
100
AcDbLine
 10
-49.1310325828
 20
150.5669700365
 30
0.0
 11
-49.1310325828
 21
200.2384285714
 31
0.0
  0
LINE
  5
D5
330
1F
100
AcDbEntity
  8
0
  6
Continuous
 62
     7
370
    25
100
AcDbLine
 10
-156.60324976
 20
66.2384285714
 30
0.0
 11
-141.60324976
 21
66.2384285714
 31
0.0
  0
LINE
  5
D6
330
1F
100
AcDbEntity
  8
0
  6
Continuous
 62
     7
370
    25
100
AcDbLine
 10
-156.60324976
 20
73.2384285714
 30
0.0
 11
-156.60324976
 21
66.2384285714
 31
0.0
  0
LINE
  5
D7
330
1F
100
AcDbEntity
  8
0
  6
Continuous
 62
     7
370
    25
100
AcDbLine
 10
-135.1024553209
 20
73.2384285714
 30
0.0
 11
-156.60324976
 21
73.2384285714
 31
0.0
  0
ARC
  5
D8
330
1F
100
AcDbEntity
  8
0
  6
Continuous
 62
     7
370
    25
100
AcDbCircle
 10
-65.1310325828
 20
75.2384285714
 30
0.0
 40
70.0
100
AcDbArc
 50
181.6372450778
 51
178.3627549222
  0
LINE
  5
D9
330
1F
100
AcDbEntity
  8
0
  6
Continuous
 62
     7
370
    25
100
AcDbLine
 10
-156.60324976
 20
77.2384285714
 30
0.0
 11
-135.1024553209
 21
77.2384285714
 31
0.0
  0
LINE
  5
DA
330
1F
100
AcDbEntity
  8
0
  6
Continuous
 62
     7
370
    25
100
AcDbLine
 10
-156.60324976
 20
84.2384285714
 30
0.0
 11
-156.60324976
 21
77.2384285714
 31
0.0
  0
LINE
  5
DB
330
1F
100
AcDbEntity
  8
0
  6
Continuous
 62
     7
370
    25
100
AcDbLine
 10
-141.60324976
 20
84.2384285714
 30
0.0
 11
-156.60324976
 21
84.2384285714
 31
0.0
  0
ARC
  5
DC
330
1F
100
AcDbEntity
  8
0
  6
Continuous
 62
     7
370
    25
100
AcDbCircle
 10
-65.1310325828
 20
75.2384285714
 30
0.0
 40
77.00000000000001
100
AcDbArc
 50
186.7122522934
 51
173.2877477066
  0
LINE
  5
DD
330
1F
100
AcDbEntity
  8
0
  6
Continuous
 62
     7
370
    25
100
AcDbLine
 10
-65.1310325828
 20
167.2384285714
 30
0.0
 11
-72.1310325828
 21
167.2384285714
 31
0.0
  0
LINE
  5
DE
330
1F
100
AcDbEntity
  8
0
  6
Continuous
 62
     7
370
    25
100
AcDbLine
 10
-58.1310325828
 20
167.2384285714
 30
0.0
 11
-65.1310325828
 21
167.2384285714
 31
0.0
  0
LINE
  5
DF
330
1F
100
AcDbEntity
  8
0
  6
Continuous
 62
     7
370
    25
100
AcDbLine
 10
-81.1310325828
 20
200.2384285714
 30
0.0
 11
-49.1310325828
 21
200.2384285714
 31
0.0
  0
LINE
  5
E0
330
1F
100
AcDbEntity
  8
0
  6
Continuous
 62
     7
370
    25
100
AcDbLine
 10
211.1807140607
 20
-53.2143256856
 30
0.0
 11
71.1807140607
 21
-53.2143256856
 31
0.0
  0
CIRCLE
  5
E1
330
1F
100
AcDbEntity
  8
0
  6
Continuous
 62
     7
370
    25
100
AcDbCircle
 10
141.1807140607
 20
-130.2143256856
 30
0.0
 40
16.0
  0
CIRCLE
  5
E2
330
1F
100
AcDbEntity
  8
0
  6
Continuous
 62
     7
370
    25
100
AcDbCircle
 10
141.1807140607
 20
-130.2143256856
 30
0.0
 40
13.0
  0
CIRCLE
  5
E3
330
1F
100
AcDbEntity
  8
0
  6
Continuous
 62
     7
370
    25
100
AcDbCircle
 10
81.1807140607
 20
-130.2143256856
 30
0.0
 40
4.600000000000023
  0
CIRCLE
  5
E4
330
1F
100
AcDbEntity
  8
0
  6
Continuous
 62
     7
370
    25
100
AcDbCircle
 10
81.1807140607
 20
-130.2143256856
 30
0.0
 40
7.000000000000028
  0
CIRCLE
  5
E5
330
1F
100
AcDbEntity
  8
0
  6
Continuous
 62
     7
370
    25
100
AcDbCircle
 10
201.1807140607
 20
-130.2143256856
 30
0.0
 40
4.600000000000051
  0
CIRCLE
  5
E6
330
1F
100
AcDbEntity
  8
0
  6
Continuous
 62
     7
370
    25
100
AcDbCircle
 10
201.1807140607
 20
-130.2143256856
 30
0.0
 40
7.000000000000057
  0
CIRCLE
  5
E7
330
1F
100
AcDbEntity
  8
0
  6
Continuous
 62
     7
370
    25
100
AcDbCircle
 10
81.1807140607
 20
-130.2143256856
 30
0.0
 40
1.500000000000014
  0
CIRCLE
  5
E8
330
1F
100
AcDbEntity
  8
0
  6
Continuous
 62
     7
370
    25
100
AcDbCircle
 10
81.1807140607
 20
-130.2143256856
 30
0.0
 40
2.000000000000028
  0
CIRCLE
  5
E9
330
1F
100
AcDbEntity
  8
0
  6
Continuous
 62
     7
370
    25
100
AcDbCircle
 10
201.1807140607
 20
-130.2143256856
 30
0.0
 40
1.500000000000028
  0
CIRCLE
  5
EA
330
1F
100
AcDbEntity
  8
0
  6
Continuous
 62
     7
370
    25
100
AcDbCircle
 10
201.1807140607
 20
-130.2143256856
 30
0.0
 40
2.000000000000028
  0
LINE
  5
EB
330
1F
100
AcDbEntity
  8
0
  6
Continuous
 62
     7
370
    25
100
AcDbLine
 10
211.1807140607
 20
-53.2143256856
 30
0.0
 11
211.1807140607
 21
-206.6865428628
 31
0.0
  0
LINE
  5
EC
330
1F
100
AcDbEntity
  8
0
  6
Continuous
 62
     7
370
    25
100
AcDbLine
 10
211.1807140607
 20
-206.6865428628
 30
0.0
 11
71.1807140607
 21
-206.6865428628
 31
0.0
  0
LINE
  5
ED
330
1F
100
AcDbEntity
  8
0
  6
Continuous
 62
     7
370
    25
100
AcDbLine
 10
71.1807140607
 20
-53.2143256856
 30
0.0
 11
71.1807140607
 21
-206.6865428628
 31
0.0
  0
LINE
  5
EE
330
1F
100
AcDbEntity
  8
0
  6
Continuous
 62
     7
370
    25
100
AcDbLine
 10
211.1807140607
 20
-221.6865428628
 30
0.0
 11
71.1807140607
 21
-221.6865428628
 31
0.0
  0
LINE
  5
EF
330
1F
100
AcDbEntity
  8
0
  6
Continuous
 62
     7
370
    25
100
AcDbLine
 10
71.1807140607
 20
-206.6865428628
 30
0.0
 11
71.1807140607
 21
-221.6865428628
 31
0.0
  0
LINE
  5
F0
330
1F
100
AcDbEntity
  8
0
  6
Continuous
 62
     7
370
    25
100
AcDbLine
 10
211.1807140607
 20
-206.6865428628
 30
0.0
 11
211.1807140607
 21
-221.6865428628
 31
0.0
  0
INSERT
  5
FC
330
1F
100
AcDbEntity
  8
FORMAT
100
AcDbBlockReference
  2
SW_CENTERMARKSYMBOL_1
 10
141.1807140607
 20
-130.2143256856
 30
0.0
  0
INSERT
  5
108
330
1F
100
AcDbEntity
  8
FORMAT
100
AcDbBlockReference
  2
SW_CENTERMARKSYMBOL_2
 10
81.1807140607
 20
-130.2143256856
 30
0.0
  0
INSERT
  5
114
330
1F
100
AcDbEntity
  8
FORMAT
100
AcDbBlockReference
  2
SW_CENTERMARKSYMBOL_3
 10
201.1807140607
 20
-130.2143256856
 30
0.0
  0
LINE
  5
115
330
1F
100
AcDbEntity
  8
0
  6
Continuous
 62
     7
370
    25
100
AcDbLine
 10
455.2904999457
 20
-188.8739434317
 30
0.0
 11
483.5747711932
 21
-172.5457811953
 31
0.0
  0
LINE
  5
116
330
1F
100
AcDbEntity
  8
0
  6
Continuous
 62
     7
370
    25
100
AcDbLine
 10
384.579821827
 20
-229.6943490229
 30
0.0
 11
412.8640930745
 21
-213.3661867864
 31
0.0
  0
LINE
  5
117
330
1F
100
AcDbEntity
  8
0
  6
Continuous
 62
     7
370
    25
100
AcDbLine
 10
406.5810287802
 20
-39.1742563886
 30
0.0
 11
307.5860794141
 21
-96.3228242162
 31
0.0
  0
LINE
  5
118
330
1F
100
AcDbEntity
  8
0
  6
Continuous
 62
     7
370
    25
100
AcDbLine
 10
431.0068321748
 20
-34.8203046576
 30
0.0
 11
431.0068321748
 21
-36.9992242949
 31
0.0
  0
LINE
  5
119
330
1F
100
AcDbEntity
  8
0
  6
Continuous
 62
     7
370
    25
100
AcDbLine
 10
445.0068321748
 20
-42.9454032613
 30
0.0
 11
445.0068321748
 21
-34.8203046576
 31
0.0
  0
LINE
  5
11A
330
1F
100
AcDbEntity
  8
0
  6
Continuous
 62
     7
370
    25
100
AcDbLine
 10
379.5804253036
 20
-32.36670122
 30
0.0
 11
379.5804253036
 21
-54.7613729946
 31
0.0
  0
LINE
  5
11B
330
1F
100
AcDbEntity
  8
0
  6
Continuous
 62
     7
370
    25
100
AcDbLine
 10
411.5804253036
 20
-36.9559678308
 30
0.0
 11
411.5804253036
 21
-32.36670122
 31
0.0
  0
LINE
  5
11C
330
1F
100
AcDbEntity
  8
0
  6
Continuous
 62
     7
370
    25
100
AcDbLine
 10
380.3972749305
 20
-75.869556044
 30
0.0
 11
391.0038766483
 21
-81.9926168827
 31
0.0
  0
LINE
  5
11D
330
1F
100
AcDbEntity
  8
0
  6
Continuous
 62
     7
370
    25
100
AcDbLine
 10
380.3972749305
 20
-70.1537703608
 30
0.0
 11
380.3972749305
 21
-75.869556044
 31
0.0
  0
LINE
  5
11E
330
1F
100
AcDbEntity
  8
0
  6
Continuous
 62
     7
370
    25
100
AcDbLine
 10
395.6006324793
 20
-78.9304818561
 30
0.0
 11
380.3972749305
 21
-70.1537703608
 31
0.0
  0
LWPOLYLINE
  5
11F
330
1F
100
AcDbEntity
  8
0
  6
Continuous
 62
     7
370
    25
100
AcDbPolyline
 90
      116
 70
   128
 43
0.0
 10
395.6006324793
 20
-75.6643186086
 10
395.7496529586
 20
-72.6610193395
 10
396.0432230698
 20
-69.7550051644
 10
396.4804825458
 20
-66.9547917573
 10
397.0601500583
 20
-64.268584758
 10
397.7805269712
 20
-61.7042557258
 10
398.6395023194
 20
-59.2693190737
 10
399.6345589939
 20
-56.9709100482
 10
400.7627811183
 20
-54.8157638201
 10
402.020862593
 20
-52.8101957486
 10
403.4051167836
 20
-50.9600828747
 10
404.911487324
 20
-49.2708466991
 10
406.5355600028
 20
-47.7474372958
 10
408.2725756987
 20
-46.3943188062
 10
410.1174443266
 20
-45.2154563574
 10
412.0647597531
 20
-44.2143044437
 10
414.1088156388
 20
-43.3937968026
 10
416.2436221593
 20
-42.7563378187
 10
418.4629235585
 20
-42.3037954779
 10
420.7602164791
 20
-42.0374958931
 10
423.1287690209
 20
-41.9582194185
 10
425.561640467
 20
-42.066198363
 10
428.0517016228
 20
-42.361116309
 10
430.5916557071
 20
-42.8421090402
 10
433.1740597344
 20
-43.5077670737
 10
435.7913463255
 20
-44.3561397903
 10
438.4358458827
 20
-45.3847411506
 10
441.0998090643
 20
-46.5905569801
 10
443.7754294933
 20
-47.9700538016
 10
446.4548666327
 20
-49.5191891898
 10
449.1302687609
 20
-51.2334236167
 10
451.7937959808
 20
-53.1077337547
 10
454.4376431928
 20
-55.136627196
 10
457.0540629669
 20
-57.3141585481
 10
459.6353882453
 20
-59.6339468551
 10
462.1740548101
 20
-62.0891942972
 10
464.6626234485
 20
-64.67270611
 10
467.0938017531
 20
-67.3769116681
 10
469.4604654909
 20
-70.1938866695
 10
471.7556794797
 20
-73.1153763573
 10
473.9727179112
 20
-76.1328197083
 10
476.1050840598
 20
-79.2373745206
 10
478.1465293202
 20
-82.419943324
 10
480.0910715184
 20
-85.6712000392
 10
481.9330124413
 20
-88.9816173061
 10
483.6669545349
 20
-92.3414944033
 10
485.2878167207
 20
-95.7409856736
 10
486.7908492854
 20
-99.1701293763
 10
488.1716477992
 20
-102.6188768783
 10
489.4261660222
 20
-106.0771221001
 10
490.5507277617
 20
-109.5347311305
 10
491.5420376444
 20
-112.9815719228
 10
492.3971907733
 20
-116.4075439847
 10
493.1136812399
 20
-119.8026079773
 10
493.6894094677
 20
-123.1568151332
 10
494.1226883644
 20
-126.4603364105
 10
494.4122482658
 20
-129.7034912952
 10
494.5572406567
 20
-132.8767761687
 10
494.5572406567
 20
-135.970892157
 10
494.4122482658
 20
-138.9767723794
 10
494.1226883644
 20
-141.885608518
 10
493.6894094677
 20
-144.6888766294
 10
493.1136812399
 20
-147.3783621225
 10
492.3971907733
 20
-149.9461838306
 10
491.5420376444
 20
-152.3848171061
 10
490.5507277617
 20
-154.68711587
 10
489.4261660222
 20
-156.8463335531
 10
488.1716477992
 20
-158.8561428654
 10
486.7908492854
 20
-160.7106543376
 10
485.2878167207
 20
-162.4044335794
 10
483.6669545349
 20
-163.932517204
 10
481.9330124413
 20
-165.290427373
 10
480.0910715184
 20
-166.4741849176
 10
478.1465293202
 20
-167.4803209994
 10
476.1050840598
 20
-168.3058872754
 10
473.9727179112
 20
-168.9484645372
 10
471.7556794797
 20
-169.4061698007
 10
469.4604654909
 20
-169.6776618238
 10
467.0938017531
 20
-169.7621450364
 10
464.6626234485
 20
-169.6593718721
 10
462.17405481
 20
-169.3696434936
 10
459.6353882453
 20
-168.8938089099
 10
457.0540629669
 20
-168.2332624887
 10
454.4376431928
 20
-167.3899398703
 10
451.7937959808
 20
-166.3663122954
 10
449.1302687609
 20
-165.1653793637
 10
446.4548666327
 20
-163.7906602435
 10
443.7754294933
 20
-162.24618336
 10
441.0998090643
 20
-160.5364745898
 10
438.4358458827
 20
-158.6665439989
 10
435.7913463255
 20
-156.6418711612
 10
433.1740597344
 20
-154.4683891017
 10
430.5916557071
 20
-152.15246691
 10
428.0517016228
 20
-149.7008910769
 10
425.561640467
 20
-147.1208456078
 10
423.1287690209
 20
-144.4198909705
 10
420.7602164791
 20
-141.6059419402
 10
418.4629235585
 20
-138.6872444071
 10
416.2436221593
 20
-135.672351212
 10
414.1088156388
 20
-132.5700970842
 10
412.0647597531
 20
-129.3895727519
 10
410.1174443266
 20
-126.1400983035
 10
408.2725756987
 20
-122.8311958762
 10
406.5355600028
 20
-119.4725617526
 10
404.911487324
 20
-116.0740379474
 10
403.4051167836
 20
-112.6455833662
 10
402.020862593
 20
-109.197244623
 10
400.7627811183
 20
-105.7391265992
 10
399.6345589939
 20
-102.2813628333
 10
398.6395023194
 20
-98.8340858257
 10
397.7805269712
 20
-95.4073973466
 10
397.0601500583
 20
-92.0113388346
 10
396.4804825458
 20
-88.6558619712
 10
396.0432230698
 20
-85.3507995191
 10
395.7496529586
 20
-82.1058365084
 10
395.6006324793
 20
-78.9304818561
  0
LINE
  5
120
330
1F
100
AcDbEntity
  8
0
  6
Continuous
 62
     7
370
    25
100
AcDbLine
 10
380.3972749305
 20
-66.8876071132
 30
0.0
 11
395.6006324793
 21
-75.6643186086
 31
0.0
  0
LINE
  5
121
330
1F
100
AcDbEntity
  8
0
  6
Continuous
 62
     7
370
    25
100
AcDbLine
 10
380.3972749305
 20
-61.17182143
 30
0.0
 11
380.3972749305
 21
-66.8876071132
 31
0.0
  0
LINE
  5
122
330
1F
100
AcDbEntity
  8
0
  6
Continuous
 62
     7
370
    25
100
AcDbLine
 10
391.0038766483
 20
-67.2948822687
 30
0.0
 11
380.3972749305
 21
-61.17182143
 31
0.0
  0
LWPOLYLINE
  5
123
330
1F
100
AcDbEntity
  8
0
  6
Continuous
 62
     7
370
    25
100
AcDbPolyline
 90
      118
 70
   128
 43
0.0
 10
391.0038766483
 20
-81.9926168827
 10
391.4049964547
 20
-85.44119944
 10
391.9495452941
 20
-88.9443468022
 10
392.6360679794
 20
-92.4926975784
 10
393.4627299297
 20
-96.0767695813
 10
394.4273220727
 20
-99.6869851666
 10
395.527266748
 20
-103.3136968268
 10
396.7596245952
 20
-106.9472129727
 10
398.1211024091
 20
-110.5778238311
 10
399.6080619395
 20
-114.1958273929
 10
401.2165296141
 20
-117.7915553392
 10
402.9422071567
 20
-121.3553988775
 10
404.7804830734
 20
-124.8778344198
 10
406.7264449761
 20
-128.3494490315
 10
408.7748927095
 20
-131.7609655859
 10
410.9203522474
 20
-135.1032675551
 10
413.1570903211
 20
-138.3674233721
 10
415.4791297397
 20
-141.5447102982
 10
417.8802653635
 20
-144.6266377327
 10
420.3540806856
 20
-147.6049699022
 10
422.8939649785
 20
-150.4717478689
 10
425.4931309597
 20
-153.2193107989
 10
428.1446329299
 20
-155.8403164346
 10
430.8413853329
 20
-158.3277607146
 10
433.576181691
 20
-160.674996491
 10
436.3417138621
 20
-162.8757512924
 10
439.1305915698
 20
-164.9241440855
 10
441.9353621515
 20
-166.814700991
 10
444.7485304746
 20
-168.5423699111
 10
447.5625789653
 20
-170.1025340306
 10
450.3699876977
 20
-171.491024154
 10
453.1632544894
 20
-172.7041298467
 10
455.934914949
 20
-173.7386093504
 10
458.6775624233
 20
-174.5916982462
 10
461.3838677902
 20
-175.2611168416
 10
464.0465990435
 20
-175.7450762626
 10
466.6586406194
 20
-176.042283234
 10
469.2130124113
 20
-176.1519435355
 10
471.702888422
 20
-176.0737641241
 10
474.1216150056
 20
-175.8079539171
 10
476.462728647
 20
-175.3552232339
 10
478.7199732348
 20
-174.7167818975
 10
480.8873167791
 20
-173.8943360022
 10
482.9589675309
 20
-172.8900833537
 10
484.9293894591
 20
-171.7067075965
 10
486.7933170444
 20
-170.3473710419
 10
488.54576935
 20
-168.8157062181
 10
490.1820633327
 20
-167.1158061625
 10
491.6978263564
 20
-165.2522134843
 10
493.0890078778
 20
-163.2299082251
 10
494.3518902702
 20
-161.054294551
 10
495.483098758
 20
-158.7311863113
 10
496.4796104354
 20
-156.2667915017
 10
497.3387623439
 20
-153.6676956757
 10
498.0582585891
 20
-150.9408443453
 10
498.6361764753
 20
-148.0935244212
 10
499.0709716442
 20
-145.1333447396
 10
499.3614822012
 20
-142.06821573
 10
499.5069318208
 20
-138.9063282756
 10
499.5069318208
 20
-135.6561318254
 10
499.3614822012
 20
-132.3263118148
 10
499.0709716442
 20
-128.9257664556
 10
498.6361764753
 20
-125.4635829575
 10
498.0582585891
 20
-121.9490132447
 10
497.3387623439
 20
-118.3914492318
 10
496.4796104354
 20
-114.8003977266
 10
495.483098758
 20
-111.1854550245
 10
494.3518902702
 20
-107.5562812651
 10
493.0890078778
 20
-103.9225746171
 10
491.6978263564
 20
-100.2940453627
 10
490.1820633327
 20
-96.6803899485
 10
488.54576935
 20
-93.0912650738
 10
486.7933170444
 20
-89.5362618859
 10
484.9293894591
 20
-86.024880349
 10
482.9589675309
 20
-82.5665038582
 10
480.8873167791
 20
-79.1703741641
 10
478.7199732348
 20
-75.8455666768
 10
476.462728647
 20
-72.6009662131
 10
474.1216150056
 20
-69.4452432543
 10
471.702888422
 20
-66.3868307761
 10
469.2130124113
 20
-63.4339017135
 10
466.6586406194
 20
-60.5943471199
 10
464.0465990435
 20
-57.8757550808
 10
461.3838677902
 20
-55.2853904355
 10
458.6775624233
 20
-52.8301753641
 10
455.934914949
 20
-50.5166708888
 10
453.1632544894
 20
-48.3510593418
 10
450.3699876977
 20
-46.3391278436
 10
447.5625789653
 20
-44.4862528389
 10
444.7485304746
 20
-42.7973857287
 10
441.9353621515
 20
-41.277039639
 10
439.1305915698
 20
-39.9292773603
 10
436.3417138621
 20
-38.7577004911
 10
433.576181691
 20
-37.7654398129
 10
430.8413853329
 20
-36.9551469243
 10
428.1446329299
 20
-36.3289871547
 10
425.4931309597
 20
-35.8886337784
 10
422.8939649785
 20
-35.6352635432
 10
420.3540806856
 20
-35.5695535251
 10
417.8802653635
 20
-35.6916793197
 10
415.4791297397
 20
-36.0013145728
 10
413.1570903211
 20
-36.4976318522
 10
410.9203522474
 20
-37.1793048592
 10
408.7748927095
 20
-38.0445119724
 10
406.7264449761
 20
-39.0909411161
 10
404.7804830734
 20
-40.3157959385
 10
402.9422071567
 20
-41.7158032845
 10
401.2165296141
 20
-43.2872219422
 10
399.6080619395
 20
-45.0258526408
 10
398.1211024091
 20
-46.927049272
 10
396.7596245952
 20
-48.985731306
 10
395.527266748
 20
-51.1963973676
 10
394.4273220727
 20
-53.5531399378
 10
393.4627299297
 20
-56.0496611404
 10
392.6360679794
 20
-58.6792895714
 10
391.9495452941
 20
-61.434998127
 10
391.4049964547
 20
-64.3094227821
 10
391.0038766483
 20
-67.2948822687
  0
LINE
  5
124
330
1F
100
AcDbEntity
  8
0
  6
Continuous
 62
     7
370
    25
100
AcDbLine
 10
391.0038766483
 20
-81.9926168827
 30
0.0
 11
292.0089272822
 21
-139.1411847102
 31
0.0
  0
LWPOLYLINE
  5
125
330
1F
100
AcDbEntity
  8
0
  6
Continuous
 62
     7
370
    25
100
AcDbPolyline
 90
       45
 70
   128
 43
0.0
 10
292.0089272822
 20
-139.1411847102
 10
292.4100470886
 20
-142.5897672675
 10
292.954595928
 20
-146.0929146298
 10
293.6411186133
 20
-149.641265406
 10
294.4677805636
 20
-153.2253374089
 10
295.4323727066
 20
-156.8355529942
 10
296.5323173818
 20
-160.4622646544
 10
297.7646752291
 20
-164.0957808003
 10
299.126153043
 20
-167.7263916587
 10
300.6131125734
 20
-171.3443952205
 10
302.221580248
 20
-174.9401231668
 10
303.9472577906
 20
-178.5039667051
 10
305.7855337073
 20
-182.0264022474
 10
307.73149561
 20
-185.498016859
 10
309.7799433434
 20
-188.9095334134
 10
311.9254028813
 20
-192.2518353827
 10
314.162140955
 20
-195.5159911997
 10
316.4841803736
 20
-198.6932781258
 10
318.8853159974
 20
-201.7752055603
 10
321.3591313195
 20
-204.7535377298
 10
323.8990156123
 20
-207.6203156965
 10
326.4981815936
 20
-210.3678786265
 10
329.1496835638
 20
-212.9888842621
 10
331.8464359668
 20
-215.4763285421
 10
334.5812323248
 20
-217.8235643186
 10
337.346764496
 20
-220.02431912
 10
340.1356422037
 20
-222.0727119131
 10
342.9404127854
 20
-223.9632688185
 10
345.7535811085
 20
-225.6909377387
 10
348.5676295991
 20
-227.2511018582
 10
351.3750383316
 20
-228.6395919816
 10
354.1683051232
 20
-229.8526976743
 10
356.9399655828
 20
-230.887177178
 10
359.6826130572
 20
-231.7402660738
 10
362.3889184241
 20
-232.4096846692
 10
365.0516496773
 20
-232.8936440902
 10
367.6636912533
 20
-233.1908510615
 10
370.2180630451
 20
-233.3005113631
 10
372.7079390559
 20
-233.2223319517
 10
375.1266656395
 20
-232.9565217447
 10
377.4677792809
 20
-232.5037910615
 10
379.7250238687
 20
-231.8653497251
 10
381.892367413
 20
-231.0429038298
 10
383.9640181648
 20
-230.0386511813
 10
384.579821827
 20
-229.6943490229
  0
ARC
  5
126
330
1F
100
AcDbEntity
  8
0
  6
Continuous
 62
     7
370
    25
100
AcDbCircle
 10
322.6844094474
 20
-121.373315113
 30
0.0
 40
29.24870362879335
100
AcDbArc
 50
121.0780397328
 51
157.2430370026
  0
LINE
  5
127
330
1F
100
AcDbEntity
  8
0
  6
Continuous
 62
     7
370
    25
100
AcDbLine
 10
320.3811125435
 20
-123.6803149656
 30
0.0
 11
362.8075194147
 21
-99.1880716109
 31
0.0
  0
LWPOLYLINE
  5
128
330
1F
100
AcDbEntity
  8
0
  6
Continuous
 62
     7
370
    25
100
AcDbPolyline
 90
       56
 70
   128
 43
0.0
 10
427.7075998484
 20
-190.0862313233
 10
427.3414776952
 20
-191.787437557
 10
426.6245038869
 20
-194.5001742424
 10
425.769238208
 20
-197.0863623893
 10
424.7779440041
 20
-199.5391579986
 10
423.6532446019
 20
-201.8520700764
 10
422.3981163673
 20
-204.0189778119
 10
421.0158808283
 20
-206.0341467752
 10
419.5101958855
 20
-207.8922440925
 10
417.8850461317
 20
-209.5883525592
 10
416.144732307
 20
-211.1179836521
 10
414.2938599182
 20
-212.4770894084
 10
412.33732705
 20
-213.6620731373
 10
410.2803114037
 20
-214.6697989387
 10
408.1282565946
 20
-215.4976000017
 10
405.8868577464
 20
-216.1432856623
 10
403.5620464199
 20
-216.6051472001
 10
401.1599749154
 20
-216.8819623605
 10
398.6869999925
 20
-216.9729985896
 10
396.1496660466
 20
-216.8780149722
 10
393.554687791
 20
-216.5972628697
 10
390.9089324866
 20
-216.1314852547
 10
388.2194017692
 20
-215.481914745
 10
385.4932131201
 20
-214.6502703418
 10
382.7375810311
 20
-213.6387528801
 10
379.9597979121
 20
-212.4500392048
 10
377.1672147924
 20
-211.0872750868
 10
374.367221868
 20
-209.5540668983
 10
371.5672289436
 20
-207.8544720684
 10
368.774645824
 20
-205.9929883465
 10
365.9968627049
 20
-203.9745418988
 10
363.2412306159
 20
-201.8044742726
 10
360.5150419669
 20
-199.48852826
 10
357.8255112494
 20
-197.0328327007
 10
355.179755945
 20
-194.4438862629
 10
352.5847776894
 20
-191.7285402452
 10
350.0474437435
 20
-188.8939804458
 10
347.5744688206
 20
-185.9477081461
 10
345.1723973162
 20
-182.8975202595
 10
342.8475859896
 20
-179.7514886982
 10
340.6061871414
 20
-176.5179390118
 10
338.4541323323
 20
-173.2054283547
 10
336.397116686
 20
-169.8227228409
 10
334.4405838178
 20
-166.3787743459
 10
332.589711429
 20
-162.8826968162
 10
330.8493976043
 20
-159.343742151
 10
329.2242478505
 20
-155.7712757179
 10
327.7185629077
 20
-152.1747515691
 10
326.3363273687
 20
-148.5636874221
 10
325.0811991341
 20
-144.9476394727
 10
323.956499732
 20
-141.3361771056
 10
322.965205528
 20
-137.7388575703
 10
322.1099398491
 20
-134.1652006894
 10
321.3929660409
 20
-130.6246636652
 10
320.8161814781
 20
-127.1266160531
 10
320.3811125435
 20
-123.6803149656
  0
LINE
  5
129
330
1F
100
AcDbEntity
  8
0
  6
Continuous
 62
     7
370
    25
100
AcDbLine
 10
464.4400178853
 20
-165.1789492407
 30
0.0
 11
458.4799136225
 21
-168.6196441944
 31
0.0
  0
LWPOLYLINE
  5
12A
330
1F
100
AcDbEntity
  8
0
  6
Continuous
 62
     7
370
    25
100
AcDbPolyline
 90
       45
 70
   128
 43
0.0
 10
362.8075194147
 20
-99.1880716109
 10
363.2425883492
 20
-102.6343726984
 10
363.819372912
 20
-106.1324203106
 10
364.5363467203
 20
-109.6729573347
 10
365.3916123992
 20
-113.2466142156
 10
366.3829066032
 20
-116.8439337509
 10
367.5076060053
 20
-120.455396118
 10
368.7627342399
 20
-124.0714440674
 10
370.1449697789
 20
-127.6825082144
 10
371.6506547217
 20
-131.2790323632
 10
373.2758044755
 20
-134.8514987963
 10
375.0161183002
 20
-138.3904534615
 10
376.866990689
 20
-141.8865309912
 10
378.8235235572
 20
-145.3304794862
 10
380.8805392035
 20
-148.713185
 10
383.0325940126
 20
-152.0256956571
 10
385.2739928608
 20
-155.2592453436
 10
387.5988041874
 20
-158.4052769048
 10
390.0008756918
 20
-161.4554647914
 10
392.4738506147
 20
-164.4017370911
 10
395.0111845606
 20
-167.2362968905
 10
397.6061628162
 20
-169.9516429082
 10
400.2519181206
 20
-172.540589346
 10
402.941448838
 20
-174.9962849053
 10
405.6676374871
 20
-177.3122309179
 10
408.4232695761
 20
-179.4822985442
 10
411.2010526951
 20
-181.5007449918
 10
413.9936358148
 20
-183.3622287138
 10
416.7936287392
 20
-185.0618235436
 10
419.5936216636
 20
-186.5950317322
 10
422.3862047833
 20
-187.9577958501
 10
425.1639879023
 20
-189.1465095254
 10
427.9196199913
 20
-190.1580269871
 10
430.6458086404
 20
-190.9896713904
 10
433.3353393578
 20
-191.6392419
 10
435.9810946622
 20
-192.105019515
 10
438.5760729178
 20
-192.3857716175
 10
441.1134068637
 20
-192.480755235
 10
443.5863817866
 20
-192.3897190059
 10
445.988453291
 20
-192.1129038454
 10
448.3132646176
 20
-191.6510423076
 10
450.5546634658
 20
-191.0053566471
 10
452.7067182749
 20
-190.177555584
 10
454.7637339212
 20
-189.1698297826
 10
455.2904999457
 20
-188.8739434317
  0
SPLINE
  5
12B
330
1F
100
AcDbEntity
  8
0
  6
Continuous
 62
     7
370
    25
100
AcDbSpline
210
0.0
220
0.0
230
1.0
 70
     8
 71
     3
 72
    21
 73
    17
 74
     0
 42
0.00000001
 43
0.00000001
 40
0.0
 40
0.0
 40
0.0
 40
0.0
 40
0.0717471140359872
 40
0.1434978357243223
 40
0.2152063243743171
 40
0.2869198373274203
 40
0.3594155539605522
 40
0.4319100677841
 40
0.5049485630650085
 40
0.5779812116735519
 40
0.6501783008907013
 40
0.7223740471598863
 40
0.7936796532600044
 40
0.8649900004252907
 40
0.9366968735309779
 40
1.0
 40
1.0
 40
1.0
 40
1.0
 10
404.7728134590313
 20
-83.57742879872326
 30
0.0
 10
405.2593232780848
 20
-83.26173579234906
 30
0.0
 10
406.2323673793122
 20
-82.63033390564343
 30
0.0
 10
407.3302739182531
 20
-81.45787836561702
 30
0.0
 10
408.1127431156274
 20
-80.16392844535117
 30
0.0
 10
408.5513644907701
 20
-78.77693307899678
 30
0.0
 10
408.6233574330163
 20
-77.34833349441017
 30
0.0
 10
408.334316800478
 20
-75.92643751688311
 30
0.0
 10
407.6736394956961
 20
-74.57208172820448
 30
0.0
 10
406.6737214060862
 20
-73.33604650980577
 30
0.0
 10
405.3543843262721
 20
-72.27198403332646
 30
0.0
 10
403.7763443967469
 20
-71.40724409323626
 30
0.0
 10
401.9737079656077
 20
-70.768005158694
 30
0.0
 10
400.0051190373287
 20
-70.35851314947512
 30
0.0
 10
397.9948356876577
 20
-70.1720116990324
 30
0.0
 10
396.6401697202364
 20
-70.22470249299478
 30
0.0
 10
396.0049975749947
 20
-70.24940801113759
 30
0.0
  0
SPLINE
  5
12C
330
1F
100
AcDbEntity
  8
0
  6
Continuous
 62
     7
370
    25
100
AcDbSpline
210
0.0
220
0.0
230
1.0
 70
     8
 71
     3
 72
    12
 73
     8
 74
     0
 42
0.00000001
 43
0.00000001
 40
0.0
 40
0.0
 40
0.0
 40
0.0
 40
0.2141394472384643
 40
0.4415509207697103
 40
0.6689436911944946
 40
0.8344731776441011
 40
1.0
 40
1.0
 40
1.0
 40
1.0
 10
396.0882669348879
 20
-85.30338660079784
 30
0.0
 10
396.7778999821994
 20
-85.32428368226505
 30
0.0
 10
398.1999084489275
 20
-85.36737301345669
 30
0.0
 10
400.2811603553476
 20
-85.14405471907459
 30
0.0
 10
402.0913083194877
 20
-84.73512574307563
 30
0.0
 10
403.5941217465522
 20
-84.20093646124874
 30
0.0
 10
404.3799183293728
 20
-83.78526357122351
 30
0.0
 10
404.7728134590313
 20
-83.57742879872326
 30
0.0
  0
LINE
  5
12D
330
1F
100
AcDbEntity
  8
0
  6
Continuous
 62
     7
370
    25
100
AcDbLine
 10
395.6006324793
 20
-75.6643186086
 30
0.0
 11
392.7717456182
 21
-77.2974002324
 31
0.0
  0
ARC
  5
12E
330
1F
100
AcDbEntity
  8
0
  6
Continuous
 62
     7
370
    25
100
AcDbCircle
 10
294.0109340568
 20
-188.6524046259
 30
0.0
 40
97.99360345251745
100
AcDbArc
 50
39.5287927081
 51
52.8702883896
  0
LWPOLYLINE
  5
12F
330
1F
100
AcDbEntity
  8
0
  6
Continuous
 62
     7
370
    25
100
AcDbPolyline
 90
       18
 70
   128
 43
0.0
 10
389.6440490785
 20
-161.0145014996
 10
390.4312166561
 20
-163.2256899277
 10
391.5557783956
 20
-166.6832989581
 10
392.5470882783
 20
-170.1301397504
 10
393.4022414072
 20
-173.5561118123
 10
394.1187318738
 20
-176.9511758049
 10
394.6944601016
 20
-180.3053829608
 10
395.1277389983
 20
-183.6089042381
 10
395.4172988997
 20
-186.8520591227
 10
395.5622912905
 20
-190.0253439963
 10
395.5622912905
 20
-193.1194599846
 10
395.4172988997
 20
-196.125340207
 10
395.1277389983
 20
-199.0341763456
 10
394.6944601016
 20
-201.837444457
 10
394.1187318738
 20
-204.5269299501
 10
393.4022414072
 20
-207.0947516582
 10
392.5470882783
 20
-209.5333849337
 10
392.2386131311
 20
-210.2995692704
  0
LINE
  5
130
330
1F
100
AcDbEntity
  8
0
  6
Continuous
 62
     7
370
    25
100
AcDbLine
 10
363.5393285153
 20
-104.5342291067
 30
0.0
 11
325.3774270123
 21
-126.5646259142
 31
0.0
  0
ARC
  5
131
330
1F
100
AcDbEntity
  8
0
  6
Continuous
 62
     7
370
    25
100
AcDbCircle
 10
423.6187894357
 20
-153.4077652016
 30
0.0
 40
42.4873889757182
100
AcDbArc
 50
337.7738824198
 51
352.9332572087
  0
LINE
  5
132
330
1F
100
AcDbEntity
  8
0
  6
Continuous
 62
     7
370
    25
100
AcDbLine
 10
452.1410054857
 20
-166.5103960726
 30
0.0
 11
465.7834235949
 21
-158.634795735
 31
0.0
  0
LWPOLYLINE
  5
133
330
1F
100
AcDbEntity
  8
0
  6
Continuous
 62
     7
370
    25
100
AcDbPolyline
 90
       52
 70
   128
 43
0.0
 10
325.3774270123
 20
-126.5646259142
 10
325.8392612635
 20
-129.9232613324
 10
326.4473325277
 20
-133.3323937721
 10
327.1998084071
 20
-136.7817499529
 10
328.0944213466
 20
-140.2609353819
 10
329.128475467
 20
-143.759465677
 10
330.2988546888
 20
-147.266798161
 10
331.6020321221
 20
-150.7723636317
 10
333.0340806956
 20
-154.2655982118
 10
334.5906849896
 20
-157.7359751826
 10
336.2671542412
 20
-161.1730367059
 10
338.0584364794
 20
-164.5664253381
 10
339.9591337486
 20
-167.9059152422
 10
341.963518376
 20
-171.1814430028
 10
344.0655502308
 20
-174.3831379516
 10
346.2588949266
 20
-177.5013519127
 10
348.5369429094
 20
-180.5266882766
 10
350.8928293752
 20
-183.4500303166
 10
353.3194549571
 20
-186.2625686616
 10
355.8095071188
 20
-188.9558278432
 10
358.3554821905
 20
-191.5216918355
 10
360.949707981
 20
-193.952428513
 10
363.5843668977
 20
-196.2407129507
 10
366.2515195042
 20
-198.3796494975
 10
368.943128446
 20
-200.3627925562
 10
371.6510826701
 20
-202.1841660067
 10
374.367221868
 20
-203.8382812151
 10
377.0833610659
 20
-205.3201535732
 10
379.7913152901
 20
-206.6253175197
 10
382.4829242318
 20
-207.7498399966
 10
385.1500768384
 20
-208.6903323018
 10
387.784735755
 20
-209.4439603004
 10
390.3789615455
 20
-210.0084529654
 10
392.9249366172
 20
-210.3821092214
 10
395.4149887789
 20
-210.5638030706
 10
397.8416143608
 20
-210.5529869861
 10
400.1975008266
 20
-210.3496935617
 10
402.4755488094
 20
-209.9545354138
 10
404.6688935052
 20
-209.3687033352
 10
406.77092536
 20
-208.5939627068
 10
408.7753099874
 20
-207.6326481776
 10
410.6760072567
 20
-206.4876566293
 10
412.4672894948
 20
-205.162438447
 10
414.1437587464
 20
-203.6609871211
 10
415.7003630405
 20
-201.9878272133
 10
417.1324116139
 20
-200.1480007223
 10
418.4355890473
 20
-198.1470518895
 10
419.605968269
 20
-195.9910104919
 10
420.6400223894
 20
-193.6863736715
 10
421.5346353289
 20
-191.2400863566
 10
422.2871112083
 20
-188.6595203334
 10
422.4540631975
 20
-187.9888284296
  0
LINE
  5
134
330
1F
100
AcDbEntity
  8
0
  6
Continuous
 62
     7
370
    25
100
AcDbLine
 10
380.3972749305
 20
-75.869556044
 30
0.0
 11
281.4023255644
 21
-133.0181238716
 31
0.0
  0
LINE
  5
135
330
1F
100
AcDbEntity
  8
0
  6
Continuous
 62
     7
370
    25
100
AcDbLine
 10
281.4023255644
 20
-133.0181238716
 30
0.0
 11
292.0089272822
 21
-139.1411847102
 31
0.0
  0
LINE
  5
136
330
1F
100
AcDbEntity
  8
0
  6
Continuous
 62
     7
370
    25
100
AcDbLine
 10
380.3972749305
 20
-70.1537703608
 30
0.0
 11
281.4023255644
 21
-127.3023381884
 31
0.0
  0
LINE
  5
137
330
1F
100
AcDbEntity
  8
0
  6
Continuous
 62
     7
370
    25
100
AcDbLine
 10
281.4023255644
 20
-127.3023381884
 30
0.0
 11
281.4023255644
 21
-133.0181238716
 31
0.0
  0
LINE
  5
138
330
1F
100
AcDbEntity
  8
0
  6
Continuous
 62
     7
370
    25
100
AcDbLine
 10
380.3972749305
 20
-66.8876071132
 30
0.0
 11
281.4023255644
 21
-124.0361749408
 31
0.0
  0
LINE
  5
139
330
1F
100
AcDbEntity
  8
0
  6
Continuous
 62
     7
370
    25
100
AcDbLine
 10
281.4023255644
 20
-124.0361749408
 30
0.0
 11
284.2312124254
 21
-125.6692565646
 31
0.0
  0
LINE
  5
13A
330
1F
100
AcDbEntity
  8
0
  6
Continuous
 62
     7
370
    25
100
AcDbLine
 10
380.3972749305
 20
-61.17182143
 30
0.0
 11
281.4023255644
 21
-118.3203892576
 31
0.0
  0
LINE
  5
13B
330
1F
100
AcDbEntity
  8
0
  6
Continuous
 62
     7
370
    25
100
AcDbLine
 10
281.4023255644
 20
-118.3203892576
 30
0.0
 11
281.4023255644
 21
-124.0361749408
 31
0.0
  0
LINE
  5
13C
330
1F
100
AcDbEntity
  8
0
  6
Continuous
 62
     7
370
    25
100
AcDbLine
 10
325.3774270123
 20
-126.5646259142
 30
0.0
 11
320.3811125435
 21
-123.6803149656
 31
0.0
  0
LWPOLYLINE
  5
13D
330
1F
100
AcDbEntity
  8
0
  6
Continuous
 62
     7
370
    25
100
AcDbPolyline
 90
       15
 70
   128
 43
0.0
 10
442.9565796431
 20
-31.9628762662
 10
442.0218672293
 20
-31.5100997911
 10
440.965160007
 20
-31.1579022158
 10
439.8185654905
 20
-30.9169848855
 10
438.616922374
 20
-30.7946679512
 10
437.3967419756
 20
-30.7946679512
 10
436.1950988591
 20
-30.9169848855
 10
435.0485043426
 20
-31.1579022158
 10
433.9917971203
 20
-31.5100997911
 10
433.0570847065
 20
-31.9628762662
 10
432.2727678648
 20
-32.5024742571
 10
431.6626776655
 20
-33.1124983517
 10
431.2453513908
 20
-33.7744132768
 10
431.0334692882
 20
-34.4681070823
 10
431.0068321748
 20
-34.8203046576
  0
ARC
  5
13E
330
1F
100
AcDbEntity
  8
0
  6
Continuous
 62
     7
370
    25
100
AcDbCircle
 10
441.5077678705
 20
-35.1666822689
 30
0.0
 40
3.516166727478271
100
AcDbArc
 50
5.6533765496
 51
65.666764408
  0
LWPOLYLINE
  5
13F
330
1F
100
AcDbEntity
  8
0
  6
Continuous
 62
     7
370
    25
100
AcDbPolyline
 90
       22
 70
   128
 43
0.0
 10
384.2667168046
 20
-25.8354363255
 10
385.6301281337
 20
-25.1335007448
 10
387.1232568034
 20
-24.5258609942
 10
388.7266375981
 20
-24.0204385869
 10
390.419367997
 20
-23.623822477
 10
392.1793806708
 20
-23.341183162
 10
393.9837311625
 20
-23.1762052776
 10
395.8088970042
 20
-23.131039563
 10
397.6310843679
 20
-23.2062748221
 10
399.4265382547
 20
-23.4009302484
 10
401.1718521772
 20
-23.7124682107
 10
402.8442732994
 20
-24.1368273352
 10
404.4219990544
 20
-24.6684754518
 10
405.8844613741
 20
-25.3004817142
 10
407.2125948257
 20
-26.0246069542
 10
408.3890851584
 20
-26.831411092
 10
409.3985950216
 20
-27.7103762017
 10
410.2279639103
 20
-28.650043629
 10
410.8663797328
 20
-29.6381633718
 10
411.3055197624
 20
-30.6618537783
 10
411.5396591374
 20
-31.7077694784
 10
411.5804253036
 20
-32.36670122
  0
LWPOLYLINE
  5
140
330
1F
100
AcDbEntity
  8
0
  6
Continuous
 62
     7
370
    25
100
AcDbPolyline
 90
        8
 70
   128
 43
0.0
 10
379.5804253036
 20
-32.36670122
 10
379.6602944053
 20
-31.4449493124
 10
379.9460754481
 20
-30.4033199452
 10
380.4356741509
 20
-29.3872862556
 10
381.1227078459
 20
-28.4100937964
 10
381.9982199982
 20
-27.4844817658
 10
383.0507969679
 20
-26.6225169322
 10
384.2667168046
 20
-25.8354363255
  0
ENDSEC
  0
SECTION
  2
OBJECTS
  0
DICTIONARY
  5
C
330
0
100
AcDbDictionary
281
     1
  3
ACAD_GROUP
350
D
  3
ACAD_LAYOUT
350
1A
  3
ACAD_MLINESTYLE
350
17
  3
ACAD_PLOTSETTINGS
350
19
  3
ACAD_PLOTSTYLENAME
350
E
  3
ACAD_SCALELIST
350
47
  3
DWGPROPS
350
141
  0
DICTIONARY
  5
D
102
{ACAD_REACTORS
330
C
102
}
330
C
100
AcDbDictionary
281
     1
  0
DICTIONARY
  5
1A
102
{ACAD_REACTORS
330
C
102
}
330
C
100
AcDbDictionary
281
     1
  3
Layout1
350
1E
  3
Layout2
350
26
  3
Model
350
22
  0
DICTIONARY
  5
17
102
{ACAD_REACTORS
330
C
102
}
330
C
100
AcDbDictionary
281
     1
  3
Standard
350
18
  0
DICTIONARY
  5
19
102
{ACAD_REACTORS
330
C
102
}
330
C
100
AcDbDictionary
281
     1
  0
ACDBDICTIONARYWDFLT
  5
E
102
{ACAD_REACTORS
330
C
102
}
330
C
100
AcDbDictionary
281
     1
  3
Normal
350
F
100
AcDbDictionaryWithDefault
340
F
  0
DICTIONARY
  5
47
102
{ACAD_REACTORS
330
C
102
}
330
C
100
AcDbDictionary
281
     1
  3
A0
350
48
  3
A1
350
49
  3
A2
350
4A
  3
A3
350
4B
  3
A4
350
4C
  3
A5
350
4D
  3
A6
350
4E
  3
A7
350
4F
  3
A8
350
50
  3
A9
350
51
  3
B0
350
52
  3
B1
350
53
  3
B2
350
54
  3
B3
350
55
  3
B4
350
56
  3
B5
350
57
  3
B6
350
58
  3
B7
350
59
  3
B8
350
5A
  3
B9
350
5B
  3
C0
350
5C
  3
C1
350
5D
  3
C2
350
5E
  3
C3
350
5F
  3
C4
350
60
  3
C5
350
61
  3
C6
350
62
  3
C7
350
63
  3
C8
350
64
  3
C9
350
65
  3
D0
350
66
  3
D1
350
67
  3
D2
350
68
  0
XRECORD
  5
141
102
{ACAD_REACTORS
330
C
102
}
330
C
100
AcDbXrecord
280
     1
  1
DWGPROPS COOKIE
  2

  3

  4

  6

  7

  8
b.kav
  9

300
=
301
=
302
=
303
=
304
=
305
=
306
=
307
=
308
=
309
=
 40
0.0
 41
2459741.489509421
 42
2459741.489509606
  1

 90
        0
  0
LAYOUT
  5
1E
102
{ACAD_REACTORS
330
1A
102
}
330
1A
100
AcDbPlotSettings
  1

  2
none_device
  4

  6

 40
0.0
 41
0.0
 42
0.0
 43
0.0
 44
0.0
 45
0.0
 46
0.0
 47
0.0
 48
0.0
 49
0.0
140
0.0
141
0.0
142
1.0
143
1.0
 70
   688
 72
     1
 73
     0
 74
     5
  7

 75
    16
147
1.0
148
0.0
149
0.0
100
AcDbLayout
  1
Layout1
 70
     1
 71
     1
 10
0.0
 20
0.0
 11
420.0
 21
297.0
 12
0.0
 22
0.0
 32
0.0
 14
1.0000000000E+20
 24
1.0000000000E+20
 34
1.0000000000E+20
 15
-1.0000000000E+20
 25
-1.0000000000E+20
 35
-1.0000000000E+20
146
0.0
 13
0.0
 23
0.0
 33
0.0
 16
1.0
 26
0.0
 36
0.0
 17
0.0
 27
1.0
 37
0.0
 76
     0
330
1B
  0
LAYOUT
  5
26
102
{ACAD_REACTORS
330
1A
102
}
330
1A
100
AcDbPlotSettings
  1

  2
none_device
  4

  6

 40
0.0
 41
0.0
 42
0.0
 43
0.0
 44
0.0
 45
0.0
 46
0.0
 47
0.0
 48
0.0
 49
0.0
140
0.0
141
0.0
142
1.0
143
1.0
 70
   688
 72
     1
 73
     0
 74
     5
  7

 75
    16
147
1.0
148
0.0
149
0.0
100
AcDbLayout
  1
Layout2
 70
     1
 71
     2
 10
0.0
 20
0.0
 11
0.0
 21
0.0
 12
0.0
 22
0.0
 32
0.0
 14
0.0
 24
0.0
 34
0.0
 15
0.0
 25
0.0
 35
0.0
146
0.0
 13
0.0
 23
0.0
 33
0.0
 16
1.0
 26
0.0
 36
0.0
 17
0.0
 27
1.0
 37
0.0
 76
     0
330
23
  0
LAYOUT
  5
22
102
{ACAD_REACTORS
330
1A
102
}
330
1A
100
AcDbPlotSettings
  1

  2
none_device
  4
Letter_(8.50_x_11.00_Inches)
  6

 40
6.35
 41
6.35
 42
6.35000508
 43
6.35000508
 44
215.9
 45
279.4
 46
0.0
 47
0.0
 48
0.0
 49
0.0
140
0.0
141
0.0
142
1.0
143
1.0
 70
  1712
 72
     1
 73
     0
 74
     0
  7

 75
     0
147
1.0
148
0.0
149
0.0
100
AcDbLayout
  1
Model
 70
     1
 71
     0
 10
0.0
 20
0.0
 11
279.4
 21
215.9
 12
0.0
 22
0.0
 32
0.0
 14
0.0
 24
0.0
 34
0.0
 15
279.4
 25
215.9
 35
0.0
146
0.0
 13
0.0
 23
0.0
 33
0.0
 16
1.0
 26
0.0
 36
0.0
 17
0.0
 27
1.0
 37
0.0
 76
     0
330
1F
331
29
  0
MLINESTYLE
  5
18
102
{ACAD_REACTORS
330
17
102
}
330
17
100
AcDbMlineStyle
  2
Standard
 70
     0
  3

 62
   256
 51
90.0
 52
90.0
 71
     2
 49
0.5
 62
   256
  6
BYLAYER
 49
-0.5
 62
   256
  6
BYLAYER
  0
ACDBPLACEHOLDER
  5
F
102
{ACAD_REACTORS
330
E
102
}
330
E
  0
SCALE
  5
48
102
{ACAD_REACTORS
330
47
102
}
330
47
100
AcDbScale
 70
     0
300
1:1
140
1.0
141
1.0
290
     1
  0
SCALE
  5
49
102
{ACAD_REACTORS
330
47
102
}
330
47
100
AcDbScale
 70
     0
300
1:2
140
1.0
141
2.0
290
     0
  0
SCALE
  5
4A
102
{ACAD_REACTORS
330
47
102
}
330
47
100
AcDbScale
 70
     0
300
1:4
140
1.0
141
4.0
290
     0
  0
SCALE
  5
4B
102
{ACAD_REACTORS
330
47
102
}
330
47
100
AcDbScale
 70
     0
300
1:5
140
1.0
141
5.0
290
     0
  0
SCALE
  5
4C
102
{ACAD_REACTORS
330
47
102
}
330
47
100
AcDbScale
 70
     0
300
1:8
140
1.0
141
8.0
290
     0
  0
SCALE
  5
4D
102
{ACAD_REACTORS
330
47
102
}
330
47
100
AcDbScale
 70
     0
300
1:10
140
1.0
141
10.0
290
     0
  0
SCALE
  5
4E
102
{ACAD_REACTORS
330
47
102
}
330
47
100
AcDbScale
 70
     0
300
1:16
140
1.0
141
16.0
290
     0
  0
SCALE
  5
4F
102
{ACAD_REACTORS
330
47
102
}
330
47
100
AcDbScale
 70
     0
300
1:20
140
1.0
141
20.0
290
     0
  0
SCALE
  5
50
102
{ACAD_REACTORS
330
47
102
}
330
47
100
AcDbScale
 70
     0
300
1:30
140
1.0
141
30.0
290
     0
  0
SCALE
  5
51
102
{ACAD_REACTORS
330
47
102
}
330
47
100
AcDbScale
 70
     0
300
1:40
140
1.0
141
40.0
290
     0
  0
SCALE
  5
52
102
{ACAD_REACTORS
330
47
102
}
330
47
100
AcDbScale
 70
     0
300
1:50
140
1.0
141
50.0
290
     0
  0
SCALE
  5
53
102
{ACAD_REACTORS
330
47
102
}
330
47
100
AcDbScale
 70
     0
300
1:100
140
1.0
141
100.0
290
     0
  0
SCALE
  5
54
102
{ACAD_REACTORS
330
47
102
}
330
47
100
AcDbScale
 70
     0
300
2:1
140
2.0
141
1.0
290
     0
  0
SCALE
  5
55
102
{ACAD_REACTORS
330
47
102
}
330
47
100
AcDbScale
 70
     0
300
4:1
140
4.0
141
1.0
290
     0
  0
SCALE
  5
56
102
{ACAD_REACTORS
330
47
102
}
330
47
100
AcDbScale
 70
     0
300
8:1
140
8.0
141
1.0
290
     0
  0
SCALE
  5
57
102
{ACAD_REACTORS
330
47
102
}
330
47
100
AcDbScale
 70
     0
300
10:1
140
10.0
141
1.0
290
     0
  0
SCALE
  5
58
102
{ACAD_REACTORS
330
47
102
}
330
47
100
AcDbScale
 70
     0
300
100:1
140
100.0
141
1.0
290
     0
  0
SCALE
  5
59
102
{ACAD_REACTORS
330
47
102
}
330
47
100
AcDbScale
 70
     0
300
1/128" = 1'-0"
140
0.0078125
141
12.0
290
     0
  0
SCALE
  5
5A
102
{ACAD_REACTORS
330
47
102
}
330
47
100
AcDbScale
 70
     0
300
1/64" = 1'-0"
140
0.015625
141
12.0
290
     0
  0
SCALE
  5
5B
102
{ACAD_REACTORS
330
47
102
}
330
47
100
AcDbScale
 70
     0
300
1/32" = 1'-0"
140
0.03125
141
12.0
290
     0
  0
SCALE
  5
5C
102
{ACAD_REACTORS
330
47
102
}
330
47
100
AcDbScale
 70
     0
300
1/16" = 1'-0"
140
0.0625
141
12.0
290
     0
  0
SCALE
  5
5D
102
{ACAD_REACTORS
330
47
102
}
330
47
100
AcDbScale
 70
     0
300
3/32" = 1'-0"
140
0.09375
141
12.0
290
     0
  0
SCALE
  5
5E
102
{ACAD_REACTORS
330
47
102
}
330
47
100
AcDbScale
 70
     0
300
1/8" = 1'-0"
140
0.125
141
12.0
290
     0
  0
SCALE
  5
5F
102
{ACAD_REACTORS
330
47
102
}
330
47
100
AcDbScale
 70
     0
300
3/16" = 1'-0"
140
0.1875
141
12.0
290
     0
  0
SCALE
  5
60
102
{ACAD_REACTORS
330
47
102
}
330
47
100
AcDbScale
 70
     0
300
1/4" = 1'-0"
140
0.25
141
12.0
290
     0
  0
SCALE
  5
61
102
{ACAD_REACTORS
330
47
102
}
330
47
100
AcDbScale
 70
     0
300
3/8" = 1'-0"
140
0.375
141
12.0
290
     0
  0
SCALE
  5
62
102
{ACAD_REACTORS
330
47
102
}
330
47
100
AcDbScale
 70
     0
300
1/2" = 1'-0"
140
0.5
141
12.0
290
     0
  0
SCALE
  5
63
102
{ACAD_REACTORS
330
47
102
}
330
47
100
AcDbScale
 70
     0
300
3/4" = 1'-0"
140
0.75
141
12.0
290
     0
  0
SCALE
  5
64
102
{ACAD_REACTORS
330
47
102
}
330
47
100
AcDbScale
 70
     0
300
1" = 1'-0"
140
1.0
141
12.0
290
     0
  0
SCALE
  5
65
102
{ACAD_REACTORS
330
47
102
}
330
47
100
AcDbScale
 70
     0
300
1-1/2" = 1'-0"
140
1.5
141
12.0
290
     0
  0
SCALE
  5
66
102
{ACAD_REACTORS
330
47
102
}
330
47
100
AcDbScale
 70
     0
300
3" = 1'-0"
140
3.0
141
12.0
290
     0
  0
SCALE
  5
67
102
{ACAD_REACTORS
330
47
102
}
330
47
100
AcDbScale
 70
     0
300
6" = 1'-0"
140
6.0
141
12.0
290
     0
  0
SCALE
  5
68
102
{ACAD_REACTORS
330
47
102
}
330
47
100
AcDbScale
 70
     0
300
1'-0" = 1'-0"
140
12.0
141
12.0
290
     0
  0
ENDSEC
  0
EOF
